Sound will begin in 5 seconds

IF YOU COULD SEE ME NOW

Chords
01234567891011121314151617181920212223
E
B
G
D
A
E
B
0 1 2 3 4 5 6 7 8 9 10 11 12 13 14 15 16 17 18 19 20 21 22 23
Song Science #1: How Pros Use 6 Chords to Write Hit Songs
(/) Slide Up  (\) Slide Down  (h) Hammer On  (p) Pull Off  (b) Bend (r) Release (v) Vibrato

Stave 1:

E|--------------------------------------------------------------
B|--------------------------------------------------------------
G|--------------------------------------------------------------
D|------10-----------7-----7------------14------------9------9--
A|--12------8-----------8-----------15------10-----------10-----
E|--------------------------------------------------------------

Stave 2:

E|--------------------------------------------------------------------
B|--------1-----------------------------------1-----------------------
G|-----------2--------------2--------------------0--------------0-----
D|-----2-----------------------3-----------2-----------------------0--
A|--0--------------------3--------------3--------------------1--------
E|--------------------1-----------------------------------2-----------

Stave 3:

E|--5--5--5--1--1--1--8---8---8---3--3--3--
B|--5--5--5--1--1--1--8---8---8---3--3--3--
G|--5--5--5--2--2--2--9---9---9---4--4--4--
D|--7--7--7--3--3--3--10--10--10--5--5--5--
A|--7--7--7--3--3--3--10--10--10--5--5--5--
E|--5--5--5--1--1--1--8---8---8---3--3--3--

Stave 4:

E|--5--1--8---3--
B|--5--1--8---3--
G|--5--2--9---4--
D|--7--3--10--5--
A|--7--3--10--5--
E|--5--1--8---3--

http://www.guitartabcreator.com
Guitar Tab Creator is intended to store guitar tab created through the tool. It currently does not support in-line text editing. Any text you place in here will be lost. If you need to comment on your tab, please use the "Tab Notes" section located below.