Sound will begin in 5 seconds

Stairway to Heaven (Solo)

01234567891011121314151617181920212223
E
B
G
D
A
E
B
0 1 2 3 4 5 6 7 8 9 10 11 12 13 14 15 16 17 18 19 20 21 22 23
Song Science #1: How Pros Use 6 Chords to Write Hit Songs
(/) Slide Up  (\) Slide Down  (h) Hammer On  (p) Pull Off  (b) Bend (r) Release (v) Vibrato

Stave 1:

E|-------5----------------------------------------8--8--------------------------------------------------
B|----------8--5----------------------------8/10--------13b15----13--10--10-----------13----15--13------
G|--7b9-----------7--5-----7--5----------------------------------------------12/14------------------14--
D|----------------------7--------7--5-------------------------------------------------------------------
A|-------------------------------------8----------------------------------------------------------------
E|------------------------------------------------------------------------------------------------------

Stave 2:

E|--------------------------5--------------------------------------------------5------------------------
B|-----------------------------8--5-----------------------------------------------8--5------------------
G|--12------12h14------7b9-----------7--5-----7--5-----------------5--5--5--0-----------7--5-----5h7p5--
D|------14---------------------------------7--------7--5-----5--7-----------------------------7---------
A|--------------------------------------------------------7---------------------------------------------
E|------------------------------------------------------------------------------------------------------

Stave 3:

E|----------------------------------------------------8--10b12--10--8--10--8--15b17--15--13-------------
B|---------------------------6---------------8--8h10-----------------------------------------15b17--15--
G|------------------------5-----7p5-----7/9-------------------------------------------------------------
D|--7--5--7--5-------0/7-------------7------------------------------------------------------------------
A|--------------8---------------------------------------------------------------------------------------
E|------------------------------------------------------------------------------------------------------

Stave 4:

E|------------------------------------------------------------------------------------------------------
B|--13------------13------13----15b17--15--13------15b17--15--13------15b17--15--13------15b17--15--13--
G|------14----14------14-----------------------14-----------------14-----------------14-----------------
D|------------------------------------------------------------------------------------------------------
A|------------------------------------------------------------------------------------------------------
E|------------------------------------------------------------------------------------------------------

Stave 5:

E|-----------------------------------------------------------------------------------------------------
B|------15b17--15--13------15b17--15--13------15b17--15--13------15b17--15--13------15b17--15--13------
G|--14-----------------14-----------------14-----------------14-----------------14-----------------14--
D|-----------------------------------------------------------------------------------------------------
A|-----------------------------------------------------------------------------------------------------
E|-----------------------------------------------------------------------------------------------------

Stave 6:

E|---------------------15b17--------12------12-----------------------------------------17-------------
B|--15b17--15--13-----------------------15------15--13------13--15--13------13--15b17------17b15--13--
G|-----------------14-----------------------------------14--------------14----------------------------
D|----------------------------------------------------------------------------------------------------
A|----------------------------------------------------------------------------------------------------
E|----------------------------------------------------------------------------------------------------

Stave 7:

E|---------------------17-------------------------------------------------------------------------------
B|-----------------20------20---------------------------------------------------------------------------
G|--14------19b21--------------21b19--17--19--17------17--19b21------14b17----14b17--14--12--14--12b14--
D|------------------------------------------------19----------------------------------------------------
A|------------------------------------------------------------------------------------------------------
E|------------------------------------------------------------------------------------------------------

Stave 8:

E|-----------------------------------------------------------19p17------19p17------19p17------19p17--
B|-------------------------------------------------------17---------17---------17---------17---------
G|--10b14----10--9--7--5--7--7b9--7b9--7b9--7--5-----------------------------------------------------
D|------------------------------------------------7--------------------------------------------------
A|---------------------------------------------------------------------------------------------------
E|---------------------------------------------------------------------------------------------------

Stave 9:

E|------19p17--20b21--------17\5--
B|--17----------------------------
G|--------------------------------
D|--------------------------------
A|--------------------------------
E|--------------------------------

http://www.guitartabcreator.com
Guitar Tab Creator is intended to store guitar tab created through the tool. It currently does not support in-line text editing. Any text you place in here will be lost. If you need to comment on your tab, please use the "Tab Notes" section located below.