Sound will begin in 5 seconds

Living on a Prayer (Solo)

01234567891011121314151617181920212223
E
B
G
D
A
E
B
0 1 2 3 4 5 6 7 8 9 10 11 12 13 14 15 16 17 18 19 20 21 22 23
Song Science #1: How Pros Use 6 Chords to Write Hit Songs
(/) Slide Up  (\) Slide Down  (h) Hammer On  (p) Pull Off  (b) Bend (r) Release (v) Vibrato

Stave 1:

E|---------------------------------12--14--15----------------------------------------------------------
B|---------------------------------------------15--12--13----15--15b17--15b17--15----12--12----13--12--
G|-----------------------------------------------------------------------------------12--12----12--12--
D|-----------5--7--7b9--7--5---------------------------------------------------------------------------
A|--7--5--7-------------------7------------------------------------------------------------------------
E|-----------------------------------------------------------------------------------------------------

Stave 2:

E|----------------------12--14--15-------------------------------------------------------------------
B|----------------------------------15--12--13----12------15b17--15b17--15b17------------14--16--17--
G|--11b13b11------------------------------------------12-------------------------14--16--------------
D|------------12-------------------------------------------------------------------------------------
A|----------------12---------------------------------------------------------------------------------
E|---------------------------------------------------------------------------------------------------

Stave 3:

E|--14--16--17b19v--------17\0--
B|------------------------------
G|------------------------------
D|------------------------------
A|------------------------------
E|------------------------------

http://www.guitartabcreator.com
Guitar Tab Creator is intended to store guitar tab created through the tool. It currently does not support in-line text editing. Any text you place in here will be lost. If you need to comment on your tab, please use the "Tab Notes" section located below.