Sound will begin in 5 seconds

Lick #1

01234567891011121314151617181920212223
E
B
G
D
A
E
B
0 1 2 3 4 5 6 7 8 9 10 11 12 13 14 15 16 17 18 19 20 21 22 23
Song Science #1: How Pros Use 6 Chords to Write Hit Songs
(/) Slide Up  (\) Slide Down  (h) Hammer On  (p) Pull Off  (b) Bend (r) Release (v) Vibrato

Stave 1:

E|--------------------------11--15--17--15--11----------------------
B|----------------------13----------------------13------------------
G|--------------12--14------------------------------14--12----------
D|----------13----------------------------------------------13------
A|--12--15------------------------------------------------------15--
E|------------------------------------------------------------------

Stave 2:

E|--------------------------10--13--15--13--10----------------------
B|----------------------11----------------------11------------------
G|--------------10--12------------------------------12--10----------
D|----------12----------------------------------------------12------
A|--10--13------------------------------------------------------13--
E|------------------------------------------------------------------

Stave 3:

E|------------------------8--14--12--8-------------------------
B|--------------------10----------------10------9--------------
G|-------------9--11------------------------11---------10------
D|---------10--------------------------------------11----------
A|--9--12--------------------------------------------------11--
E|-------------------------------------------------------------

Stave 4:

E|------------------------8--11--------------------------11--17--
B|--------------------10-----------------------------13----------
G|-------------8--11-------------------------11--14--------------
D|---------10----------------------------13----------------------
A|--9--12------------------------12--15--------------------------
E|---------------------------------------------------------------

http://www.guitartabcreator.com
Guitar Tab Creator is intended to store guitar tab created through the tool. It currently does not support in-line text editing. Any text you place in here will be lost. If you need to comment on your tab, please use the "Tab Notes" section located below.