Sound will begin in 5 seconds

My Blues Licks - Key C

01234567891011121314151617181920212223
E
B
G
D
A
E
B
0 1 2 3 4 5 6 7 8 9 10 11 12 13 14 15 16 17 18 19 20 21 22 23
Song Science #1: How Pros Use 6 Chords to Write Hit Songs
(/) Slide Up  (\) Slide Down  (h) Hammer On  (p) Pull Off  (b) Bend (r) Release (v) Vibrato

Stave 1:

E|-----------------------------------
B|-----------------------------------
G|------------------10--12-----------
D|----------10--13----------13--10v--
A|--10--13---------------------------
E|-----------------------------------

Stave 2:

E|-----------------------
B|-----------------------
G|-----------------------
D|--10h13--10--10/8--10--
A|-----------------------
E|-----------------------

Stave 3:

E|---------8--10b11r8v--
B|-----10---------------
G|--8-------------------
D|----------------------
A|----------------------
E|----------------------

Stave 4:

E|------------8-------
B|--10b11--8-----13v--
G|--------------------
D|--------------------
A|--------------------
E|--------------------

Stave 5:

E|------------8---------11--8v-------------------------8--------8---------------
B|---------8-----11--8----------11p8--10b11--10p8---------8h10-----8h10------8--
G|--10b11------------------------------------------10--------------------10-----
D|------------------------------------------------------------------------------
A|------------------------------------------------------------------------------
E|------------------------------------------------------------------------------

http://www.guitartabcreator.com
Guitar Tab Creator is intended to store guitar tab created through the tool. It currently does not support in-line text editing. Any text you place in here will be lost. If you need to comment on your tab, please use the "Tab Notes" section located below.