Sound will begin in 5 seconds

High Speed Alternate Picking (6 String) by Claus Levin

01234567891011121314151617181920212223
E
B
G
D
A
E
B
0 1 2 3 4 5 6 7 8 9 10 11 12 13 14 15 16 17 18 19 20 21 22 23
Song Science #1: How Pros Use 6 Chords to Write Hit Songs
(/) Slide Up  (\) Slide Down  (h) Hammer On  (p) Pull Off  (b) Bend (r) Release (v) Vibrato

Stave 1:

E|--------------------------------------------------------------------------------------------------
B|--------------------------------------------------------------------------------------------------
G|--------------------------------------------------------------------------------------12--14--16--
D|--------------------------------------------------12--14--16--14--16--17--12--14--16--------------
A|--------------12--14--15--14--15--17--12--14--15--------------------------------------------------
E|--12--14--15--------------------------------------------------------------------------------------

Stave 2:

E|--------------------------------------------------------------14--15--17--15--17--19--20--19--17--
B|--------------------------13--15--17--15--17--19--13--15--17--------------------------------------
G|--14--16--17--12--14--16--------------------------------------------------------------------------
D|--------------------------------------------------------------------------------------------------
A|--------------------------------------------------------------------------------------------------
E|--------------------------------------------------------------------------------------------------

Stave 3:

E|--------------------------------------------------------------------------------------------------
B|--20--19--17--19--17--15--20--19--17--------------------------------------------------------------
G|--------------------------------------19--17--16--17--16--14--19--17--16--------------------------
D|--------------------------------------------------------------------------19--17--16--17--16--14--
A|--------------------------------------------------------------------------------------------------
E|--------------------------------------------------------------------------------------------------

Stave 4:

E|------------------------------------------------------------------------------
B|------------------------------------------------------------------------------
G|------------------------------------------------------------------------------
D|--19--17--16------------------------------------------------------------------
A|--------------19--17--15--17--15--14--19--17--15------------------------------
E|--------------------------------------------------19--17--15--17--15--14--12--

http://www.guitartabcreator.com
Guitar Tab Creator is intended to store guitar tab created through the tool. It currently does not support in-line text editing. Any text you place in here will be lost. If you need to comment on your tab, please use the "Tab Notes" section located below.