Sound will begin in 5 seconds

E Chromatic (Chris Zoupa)

01234567891011121314151617181920212223
E
B
G
D
A
E
B
0 1 2 3 4 5 6 7 8 9 10 11 12 13 14 15 16 17 18 19 20 21 22 23
Song Science #1: How Pros Use 6 Chords to Write Hit Songs
(/) Slide Up  (\) Slide Down  (h) Hammer On  (p) Pull Off  (b) Bend (r) Release (v) Vibrato

Stave 1:

E|--12--11--10--9----------------------------------------------------------------------------------
B|-----------------13--12--11--10------------------13--12--11--10----------------------------------
G|---------------------------------13--12--11--10------------------13--12--11--10------------------
D|---------------------------------------------------------------------------------14--13--12--11--
A|-------------------------------------------------------------------------------------------------
E|-------------------------------------------------------------------------------------------------

Stave 2:

E|--------------------------------------------------------------------------------------------------
B|--------------------------------------------------------------------------------------------------
G|--13--12--11--10----------------------------------------------------------------------------------
D|------------------14--13--12--11------------------14--13--12--11----------------------------------
A|----------------------------------15--14--13--12------------------15--14--13--12------------------
E|----------------------------------------------------------------------------------16--15--14--13--

Stave 3:

E|--------------------------------------------------------------------------------------------------
B|--------------------------------------------------------------------------------------------------
G|----------------------------------------------------------------------------------10--11--12--13--
D|----------------------------------11--12--13--14------------------11--12--13--14------------------
A|------------------12--13--14--15------------------12--13--14--15----------------------------------
E|--13--14--15--16----------------------------------------------------------------------------------

Stave 4:

E|----------------------------------------------------------------------------------9--10--11--12--
B|----------------------------------10--11--12--13------------------10--11--12--13-----------------
G|------------------10--11--12--13------------------10--11--12--13---------------------------------
D|--11--12--13--14---------------------------------------------------------------------------------
A|-------------------------------------------------------------------------------------------------
E|-------------------------------------------------------------------------------------------------

http://www.guitartabcreator.com
Guitar Tab Creator is intended to store guitar tab created through the tool. It currently does not support in-line text editing. Any text you place in here will be lost. If you need to comment on your tab, please use the "Tab Notes" section located below.