Sound will begin in 5 seconds

Chris Hamel

01234567891011121314151617181920212223
E
B
G
D
A
E
B
0 1 2 3 4 5 6 7 8 9 10 11 12 13 14 15 16 17 18 19 20 21 22 23
Song Science #1: How Pros Use 6 Chords to Write Hit Songs
(/) Slide Up  (\) Slide Down  (h) Hammer On  (p) Pull Off  (b) Bend (r) Release (v) Vibrato

Stave 1:

E|--------------------------------------------------------------------------------------------------
B|---------11--9----------------10--8---------------9--7--------------8--6--------------7--5--------
G|-----10---------10---------9---------9---------8--------8--------7--------7--------6--------6-----
D|--9-----------------11--8---------------10--7--------------9--6--------------8--5--------------7--
A|--------------------------------------------------------------------------------------------------
E|--------------------------------------------------------------------------------------------------

Stave 2:

E|--0--2--1--3--2--4--3--2--0--3--2--4--3--5--4--3--0--4--3--5--4--6--5--4--0--
B|-----------------------------------------------------------------------------
G|-----------------------------------------------------------------------------
D|-----------------------------------------------------------------------------
A|-----------------------------------------------------------------------------
E|-----------------------------------------------------------------------------

Stave 3:

E|-------------9---------------------9--11--12--11--9----------
B|--9--10--12-----12--10--9--10--12--------------------12--10--
G|-------------------------------------------------------------
D|-------------------------------------------------------------
A|-------------------------------------------------------------
E|-------------------------------------------------------------

http://www.guitartabcreator.com
Guitar Tab Creator is intended to store guitar tab created through the tool. It currently does not support in-line text editing. Any text you place in here will be lost. If you need to comment on your tab, please use the "Tab Notes" section located below.