Sound will begin in 5 seconds

Attack Of The Humungo Rats

Chords
01234567891011121314151617181920212223
E
B
G
D
A
E
B
0 1 2 3 4 5 6 7 8 9 10 11 12 13 14 15 16 17 18 19 20 21 22 23
Song Science #1: How Pros Use 6 Chords to Write Hit Songs
(/) Slide Up  (\) Slide Down  (h) Hammer On  (p) Pull Off  (b) Bend (r) Release (v) Vibrato

Stave 1:

E|--------------------------------------------------------------
B|--------------------------------------------------------------
G|--------------------------------------------------------------
D|---------------------------3h2p0---------------------------3--
A|-----------3h5p0---------------------------3h5p0--------------
D|--0--0--0---------0--0--0---------0--0--0---------0--0--0-----

Stave 2:

E|--------------------------------------------------------------
B|--------------------------------------------------------------
G|--------------------------------------------------------------
D|---------------------------3h2p0------------------------------
A|-----------3h5p0---------------------------3h5p0-----------3--
D|--0--0--0---------0--0--0---------0--0--0---------0--0--0-----

Stave 3:

E|--------------------------------------------------------------
B|--------------------------------------------------------------
G|--------------------------------------------------------------
D|---------------------------3h2p0---------------------------5--
A|-----------3h5p0---------------------------3h5p0--------------
D|--0--0--0---------0--0--0---------0--0--0---------0--0--0-----

Stave 4:

E|--------------------------------------------------------------
B|--------------------------------------------------------------
G|--------------------------------------------------------------
D|---------------------------3h2p0---------------------------5--
A|-----------3h5p0---------------------------3h5p0-----------3--
D|--0--0--0---------0--0--0---------0--0--0---------0--0--------

Stave 5:

E|------------------------------------------------------
B|------------------------------------------------------
G|------------------------------------------------------
D|-----------------------------------5-----------3\2/3--
A|-----------3-----------5------------------------------
D|--0--0--0-----0--0--0-----0--0--0-----0--0--0---------

Stave 6:

E|--------------------------------------------
B|--------------------------------------------
G|--------------------------------------------
D|--2--3------2--3------2--3------2--3--6--5--
A|--2--3------2--3------2--3------2--3--6--5--
D|--2--3--2v--2--3--2v--2--3--2v--2--3--6--5--

Stave 7:

E|--------------------------------------------------------------------------------------------------
B|--------------------------------------------------------------------------------------------------
G|--------------------------------------------------------------------------------------------------
D|--------------------------------------------------------------------------------------------------
A|--------------------------------------------------------------------------------------------------
D|--0--0--0--0--0--0--0--0--2--2--2--2--2--2--2--2--3--3--3--3--3--3--3--3--6--6--6--6--6--6--6--6--

http://www.guitartabcreator.com
Guitar Tab Creator is intended to store guitar tab created through the tool. It currently does not support in-line text editing. Any text you place in here will be lost. If you need to comment on your tab, please use the "Tab Notes" section located below.