Sound will begin in 5 seconds

By Jiminy Practicise 1

01234567891011121314151617181920212223
E
B
G
D
A
E
B
0 1 2 3 4 5 6 7 8 9 10 11 12 13 14 15 16 17 18 19 20 21 22 23
Song Science #1: How Pros Use 6 Chords to Write Hit Songs
(/) Slide Up  (\) Slide Down  (h) Hammer On  (p) Pull Off  (b) Bend (r) Release (v) Vibrato

Stave 1:

E|-------------------------
B|-------------------------
G|-------------------------
D|-----9------7------------
A|--7-----10-----9--10--7--
E|-------------------------

Stave 2:

E|-------------------------
B|-------------------------
G|-------------------------
D|-----9------7------------
A|--7-----10-----9---------
E|------------------10--8--

Stave 3:

E|-------------------------
B|-------------------------
G|-------------------------
D|-----9------7------------
A|--7-----10-----9--10--7--
E|-------------------------

Stave 4:

E|------------------------------------------
B|------------------------------------------
G|------------------------------------------
D|-----9------7-------------------10--9-----
A|--7-----10-----9---------8--10---------9--
E|------------------10--8-------------------

Stave 5:

E|-----------------------------
B|-----------------------------
G|------12--11----------12--9--
D|--12----------12--10---------
A|-----------------------------
E|-----------------------------

Stave 6:

E|-----7-----7--6--------7-----7--9-----7-----7--6-----5-----5--8--
B|--------8--------7--------8--------------8--------7-----6--------
G|--9-----------------9--------------9-----------------------------
D|-----------------------------------------------------------------
A|-----------------------------------------------------------------
E|-----------------------------------------------------------------

Stave 7:

E|--19--17------------------------------
B|----------18--17----------------------
G|------------------17--16--------------
D|--------------------------17--16--14--
A|--------------------------------------
E|--------------------------------------

http://www.guitartabcreator.com
Guitar Tab Creator is intended to store guitar tab created through the tool. It currently does not support in-line text editing. Any text you place in here will be lost. If you need to comment on your tab, please use the "Tab Notes" section located below.