Sound will begin in 5 seconds

Tristram Guitar 1

01234567891011121314151617181920212223
E
B
G
D
A
E
B
0 1 2 3 4 5 6 7 8 9 10 11 12 13 14 15 16 17 18 19 20 21 22 23
Song Science #1: How Pros Use 6 Chords to Write Hit Songs
(/) Slide Up  (\) Slide Down  (h) Hammer On  (p) Pull Off  (b) Bend (r) Release (v) Vibrato

Stave 1:

E|----------------------------------------------
B|----------------------------------------------
G|----------------------------------------------
D|--9-----9--11--12--------9-----9--7--5--------
A|-----9----------------------9-----------------
D|----------------------------------------------

Stave 2:

E|--------------------------------------------
B|--12------12--14--15-----12------12--10--8--
G|------11---------------------11-------------
D|--------------------------------------------
A|--------------------------------------------
D|--------------------------------------------

Stave 3:

E|---------------------------------------------------
B|--------10--12--13-----------10--15--13-----12-----
G|-----9--------------------9------------------------
D|--7--------------------7---------------------------
A|---------------------------------------------------
D|---------------------------------------------------

Stave 4:

E|-----------------------------------
B|--11----------11--10---------------
G|------10--------------9------------
D|----------12-------------11--8--9--
A|-----------------------------------
D|-----------------------------------

Stave 5:

E|----------------------------------------------------------------------------------------------------------------------------------------------
B|-----10-------12--------13---------15---------------12--14--15--14--12------------------------------------------------------------------------
G|------------------------------------------------------------------------14--13--11--13v-------------------------------------------9--11--12v--
D|--7------7/9------9/10------10/12------12---------------------------------------------------12--14--16-----10--12--10--9--10--12--------------
A|----------------------------------------------------------------------------------------------------------------------------------------------
D|----------------------------------------------------------------------------------------------------------------------------------------------

http://www.guitartabcreator.com
Guitar Tab Creator is intended to store guitar tab created through the tool. It currently does not support in-line text editing. Any text you place in here will be lost. If you need to comment on your tab, please use the "Tab Notes" section located below.