You make Me Brave - Eb

Chords

01234567891011121314151617181920212223
E
B
G
D
A
E
B
0 1 2 3 4 5 6 7 8 9 10 11 12 13 14 15 16 17 18 19 20 21 22 23
(/) Slide Up  (\) Slide Down  (h) Hammer On  (p) Pull Off  (b) Bend (r) Release (v) Vibrato

Stave 1:

E|-------15-13-------15----------18-
B|----16----------16----18-16-------
G|-13----------15-------------15----
D|----------------------------------
A|----------------------------------
E|----------------------------------

Stave 2:

E|-----------------------------
B|-----------------------------
G|-----------------------------
D|-10-10-8-8-10-8-6----8-10-12-
A|-----------------------------
E|-----------------------------

Stave 3:

E|-11-11-13-15-13-11-15-13-11----
B|----------------------------11-
G|-------------------------------
D|-------------------------------
A|-------------------------------
E|-------------------------------

Stave 4:

E|-------------------------------
B|-------------------------------
G|-12-12-10-12-10-12-10-12-13-15-
D|-------------------------------
A|-------------------------------
E|-------------------------------

Stave 5:

E|-------6---------6---
B|---6-----8---6-----6-
G|-8---8-----7---7-----
D|---------------------
A|---------------------
E|---------------------

Stave 6:

E|-------15----------15-13-------15----
B|----16----18----16----------16----18-
G|-17----------13----------15----------
D|-------------------------------------
A|-------------------------------------
E|-------------------------------------

Stave 7:

E|----------18-
B|----15-------
G|-15----15----
D|-------------
A|-------------
E|-------------

Stave 8:

E|-----0-------------------
B|---8---6-6-6-----------6-
G|-8-----------8-7-7-8-8---
D|-------------------------
A|-------------------------
E|-------------------------

							http://www.guitartabcreator.com
Instruments
{"title":"You make Me Brave - Eb","strings":[[[".",".",15,13,".",".",15,".",".",".",18],[".",16,".",".",".",16,".",18,16,".","."],[13,".",".",".",15,".",".",".",".",15,"."],[".",".",".",".",".",".",".",".",".",".","."],[".",".",".",".",".",".",".",".",".",".","."],[".",".",".",".",".",".",".",".",".",".","."]],[[".",".",".",".",".",".",".","_",".",".","."],[".",".",".",".",".",".",".","_",".",".","."],[".",".",".",".",".",".",".","_",".",".","."],[10,10,8,8,10,8,6,"_",8,10,12],[".",".",".",".",".",".",".","_",".",".","."],[".",".",".",".",".",".",".","_",".",".","."]],[[11,11,13,15,13,11,15,13,11,"."],[".",".",".",".",".",".",".",".",".",11],[".",".",".",".",".",".",".",".",".","."],[".",".",".",".",".",".",".",".",".","."],[".",".",".",".",".",".",".",".",".","."],[".",".",".",".",".",".",".",".",".","."]],[[".",".",".",".",".",".",".",".",".","."],[".",".",".",".",".",".",".",".",".","."],[12,12,10,12,10,12,10,12,13,15],[".",".",".",".",".",".",".",".",".","."],[".",".",".",".",".",".",".",".",".","."],[".",".",".",".",".",".",".",".",".","."]],[[".",".",".",6,".",".",".",".",6,"."],[".",6,".",".",8,".",6,".",".",6],[8,".",8,".",".",7,".",7,".","."],[".",".",".",".",".",".",".",".",".","."],[".",".",".",".",".",".",".",".",".","."],[".",".",".",".",".",".",".",".",".","."]],[[".",".",15,".",".",".",15,13,".",".",15,"."],[".",16,".",18,".",16,".",".",".",16,".",18],[17,".",".",".",13,".",".",".",15,".",".","."],[".",".",".",".",".",".",".",".",".",".",".","."],[".",".",".",".",".",".",".",".",".",".",".","."],[".",".",".",".",".",".",".",".",".",".",".","."]],[[".",".",".",18],[".",15,".","."],[15,".",15,"."],[".",".",".","."],[".",".",".","."],[".",".",".","."]],[[".",".",0,".",".",".",".",".",".",".",".","."],[".",8,".",6,6,6,".",".",".",".",".",6],[8,".",".",".",".",".",8,7,7,8,8,"."],[".",".",".",".",".",".",".",".",".",".",".","."],[".",".",".",".",".",".",".",".",".",".",".","."],[".",".",".",".",".",".",".",".",".",".",".","."]]],"numberofstrings":6,"notes":["E","B","G","D","A","E","B"],"capo":0,"stringnotes":["E4","B3","G3","D3","A2","E2"],"comments":["Stave 1:","Stave 2:","Stave 3:","Stave 4:","Stave 5:","Stave 6:","Stave 7:","Stave 8:"],"timing":[["W","W","W","W","W","W","W","W","W","W","W"],["W","W","W","W","W","W","W",null,"W","W","W"],["W","W","W","W","W","W","W","W","W","W"],["W","W","W","W","W","W","W","W","W","W"],["W","W","W","W","W","W","W","W","W","W","W"],["W","W","W","W","W","W","W","W","W","W","W","W","W","W","W"],["W","W","W","W"],["W","W","W","W","W","W","W","W","W","W","W","W"]],"timingvisible":false,"tabcounter":12,"stave":7,"totalstaves":8,"instrument":"6guitar","selectedtuning":"6_standard","version":"13"}

Member for

1 year 7 months
Submitted by kasquires22 on Wed, 2019-09-04 20:34