You make me Brave - D

Chords

01234567891011121314151617181920212223
E
B
G
D
A
E
B
0 1 2 3 4 5 6 7 8 9 10 11 12 13 14 15 16 17 18 19 20 21 22 23
(/) Slide Up  (\) Slide Down  (h) Hammer On  (p) Pull Off  (b) Bend (r) Release (v) Vibrato

Stave 1:

E|-------14----------14----------17-
B|----15----17----15----17-15-------
G|-16----------14-------------14----
D|----------------------------------
A|----------------------------------
E|----------------------------------

Stave 2:

E|----------------------
B|----------------------
G|----------------------
D|-9-9-7-7-9-7-5-7-9-11-
A|----------------------
E|----------------------

Stave 3:

E|-10-10-12-14-12-10-14-12-10----
B|----------------------------10-
G|-------------------------------
D|-------------------------------
A|-------------------------------
E|-------------------------------

Stave 4:

E|-------14----------14----------14----
B|----15----17----15----17----15----17-
G|-16----------16----------14----------
D|-------------------------------------
A|-------------------------------------
E|-------------------------------------

Stave 5:

E|----------17-
B|----14-------
G|-14----14----
D|-------------
A|-------------
E|-------------

							http://www.guitartabcreator.com
Instruments
{"title":"","strings":[[[".",".",14,".",".",".",14,".",".",".",17],[".",15,".",17,".",15,".",17,15,".","."],[16,".",".",".",14,".",".",".",".",14,"."],[".",".",".",".",".",".",".",".",".",".","."],[".",".",".",".",".",".",".",".",".",".","."],[".",".",".",".",".",".",".",".",".",".","."]],[[".",".",".",".",".",".",".",".",".","."],[".",".",".",".",".",".",".",".",".","."],[".",".",".",".",".",".",".",".",".","."],[9,9,7,7,9,7,5,7,9,11],[".",".",".",".",".",".",".",".",".","."],[".",".",".",".",".",".",".",".",".","."]],[[10,10,12,14,12,10,14,12,10,"."],[".",".",".",".",".",".",".",".",".",10],[".",".",".",".",".",".",".",".",".","."],[".",".",".",".",".",".",".",".",".","."],[".",".",".",".",".",".",".",".",".","."],[".",".",".",".",".",".",".",".",".","."]],[[".",".",14,".",".",".",14,".",".",".",14,"."],[".",15,".",17,".",15,".",17,".",15,".",17],[16,".",".",".",16,".",".",".",14,".",".","."],[".",".",".",".",".",".",".",".",".",".",".","."],[".",".",".",".",".",".",".",".",".",".",".","."],[".",".",".",".",".",".",".",".",".",".",".","."]],[[".",".",".",17],[".",14,".","."],[14,".",14,"."],[".",".",".","."],[".",".",".","."],[".",".",".","."]]],"numberofstrings":6,"notes":["E","B","G","D","A","E","B"],"capo":0,"stringnotes":["E4","B3","G3","D3","A2","E2"],"comments":["Stave 1:","Stave 2:","Stave 3:","Stave 4:","Stave 5:"],"timing":[["W","W","W","W","W","W","W","W","W","W","W"],["W","W","W","W","W","W","W","W","W","W"],["W","W","W","W","W","W","W","W","W","W"],["W","W","W","W","W","W","W","W","W","W","W","W"],["W","W","W","W"]],"timingvisible":false,"tabcounter":4,"stave":4,"totalstaves":5,"instrument":"6guitar","selectedtuning":"6_standard","version":"13"}

Member for

1 year 7 months
Submitted by kasquires22 on Sat, 2020-02-01 17:57