You Are Good (Kari Jobe)

Chords

01234567891011121314151617181920212223
E
B
G
D
A
E
B
0 1 2 3 4 5 6 7 8 9 10 11 12 13 14 15 16 17 18 19 20 21 22 23
(/) Slide Up  (\) Slide Down  (h) Hammer On  (p) Pull Off  (b) Bend (r) Release (v) Vibrato

Stave 1:

E|---------------------------------
B|---0-----0---------0-------0-----
G|-----0-----0---0-----0-------0---
D|-------0-----0---4-----0-------4-
A|-------------------------5-------
E|-3-------------------------------

Stave 2:

E|---------------------------------
B|---0-----0---------0-----0-------
G|-----0-----0---0-----0-----0---0-
D|-------4-----4---------2-----2---
A|-2---------------3---------------
E|---------------------------------

							http://www.guitartabcreator.com
Instruments
{"title":"You Are Good (Kari Jobe)","strings":[[[".",".",".",".",".",".",".",".",".",".",".",".",".",".",".","."],[".",0,".",".",0,".",".",".",".",0,".",".",".",0,".","."],[".",".",0,".",".",0,".",0,".",".",0,".",".",".",0,"."],[".",".",".",0,".",".",0,".",4,".",".",0,".",".",".",4],[".",".",".",".",".",".",".",".",".",".",".",".",5,".",".","."],[3,".",".",".",".",".",".",".",".",".",".",".",".",".",".","."]],[[".",".",".",".",".",".",".",".",".",".",".",".",".",".",".","."],[".",0,".",".",0,".",".",".",".",0,".",".",0,".",".","."],[".",".",0,".",".",0,".",0,".",".",0,".",".",0,".",0],[".",".",".",4,".",".",4,".",".",".",".",2,".",".",2,"."],[2,".",".",".",".",".",".",".",3,".",".",".",".",".",".","."],[".",".",".",".",".",".",".",".",".",".",".",".",".",".",".","."]]],"numberofstrings":6,"notes":["E","B","G","D","A","E","B"],"capo":0,"stringnotes":["E4","B3","G3","D3","A2","E2"],"comments":["Stave 1:","Stave 2:"],"timing":[["W","W","W","W","W","W","W","W","W","W","W","W","W","W","W","W","W"],["W","W","W","W","W","W","W","W","W","W","W","W","W","W","W","W"]],"timingvisible":false,"tabcounter":16,"stave":1,"totalstaves":2,"instrument":"6guitar","selectedtuning":"6_standard","version":"13"}

Member for

1 year 7 months
Submitted by kasquires22 on Sat, 2019-10-12 20:32