Yes I Will - E

Chords

01234567891011121314151617181920212223
E
B
G
D
A
E
B
0 1 2 3 4 5 6 7 8 9 10 11 12 13 14 15 16 17 18 19 20 21 22 23
(/) Slide Up  (\) Slide Down  (h) Hammer On  (p) Pull Off  (b) Bend (r) Release (v) Vibrato

Stave 1:

E|------9------11---11-12-
B|-9h12---12-9----9-------
G|------------------------
D|------------------------
A|------------------------
E|------------------------

Stave 2:

E|------9------11---9-
B|-9h12---12-9----9---
G|--------------------
D|--------------------
A|--------------------
E|--------------------

Stave 3:

E|----------------------
B|-10---10-9----7---7-9-
G|----9-----------9-----
D|----------------------
A|----------------------
E|----------------------

Stave 4:

E|----------------------
B|-10---10-9----7---7-7-
G|----9-----------9-----
D|----------------------
A|----------------------
E|----------------------

							http://www.guitartabcreator.com
Instruments
{"title":"Yes I Will - E","strings":[[[".",".",".",9,".",".",11,".",11,12],[9,"h",12,".",12,9,".",9,".","."],[".",".",".",".",".",".",".",".",".","."],[".",".",".",".",".",".",".",".",".","."],[".",".",".",".",".",".",".",".",".","."],[".",".",".",".",".",".",".",".",".","."]],[[".",".",".",9,".",".",11,".",9],[9,"h",12,".",12,9,".",9,"."],[".",".",".",".",".",".",".",".","."],[".",".",".",".",".",".",".",".","."],[".",".",".",".",".",".",".",".","."],[".",".",".",".",".",".",".",".","."]],[[".",".",".",".","_",".",".",".","."],[10,".",10,9,"_",7,".",7,9],[".",9,".",".","_",".",9,".","."],[".",".",".",".","_",".",".",".","."],[".",".",".",".","_",".",".",".","."],[".",".",".",".","_",".",".",".","."]],[[".",".",".",".","_",".",".",".","."],[10,".",10,9,"_",7,".",7,7],[".",9,".",".","_",".",9,".","."],[".",".",".",".","_",".",".",".","."],[".",".",".",".","_",".",".",".","."],[".",".",".",".","_",".",".",".","."]]],"numberofstrings":6,"notes":["E","B","G","D","A","E","B"],"capo":0,"stringnotes":["E4","B3","G3","D3","A2","E2"],"comments":["Stave 1:","Stave 2:","Stave 3:","Stave 4:"],"timing":[["W",null,"W","W","W","W","W","W","W","W"],["W",null,"W","W","W","W","W","W","W"],["W","W","W","W",null,"W","W","W","W"],["W","W","W","W","W","W","W","W","W"]],"timingvisible":false,"tabcounter":9,"stave":3,"totalstaves":4,"instrument":"6guitar","selectedtuning":"6_standard","version":"13"}

Member for

1 year 7 months
Submitted by kasquires22 on Fri, 2019-11-15 19:07