Yes I Will

Chords

01234567891011121314151617181920212223
E
B
G
D
A
E
B
0 1 2 3 4 5 6 7 8 9 10 11 12 13 14 15 16 17 18 19 20 21 22 23
(/) Slide Up  (\) Slide Down  (h) Hammer On  (p) Pull Off  (b) Bend (r) Release (v) Vibrato

Stave 1:

E|-----5--------7---7-8-
B|-5h8---8-5------5-----
G|----------------------
D|----------------------
A|----------------------
E|----------------------

Stave 2:

E|-----5--------7---5-
B|-5h8---8-5------5---
G|--------------------
D|--------------------
A|--------------------
E|--------------------

Stave 3:

E|-13----13-12-10----10-12-
B|----13----------13-------
G|-------------------------
D|-------------------------
A|-------------------------
E|-------------------------

Stave 4:

E|-13----13-12-10----10-10-
B|----13----------13-------
G|-------------------------
D|-------------------------
A|-------------------------
E|-------------------------

							http://www.guitartabcreator.com
Instruments
{"title":"Yes I Will","strings":[[[".",".",".",5,".",".","_",7,".",7,8],[5,"h",8,".",8,5,"_",".",5,".","."],[".",".",".",".",".",".","_",".",".",".","."],[".",".",".",".",".",".","_",".",".",".","."],[".",".",".",".",".",".","_",".",".",".","."],[".",".",".",".",".",".","_",".",".",".","."]],[[".",".",".",5,".",".","_",7,".",5],[5,"h",8,".",8,5,"_",".",5,"."],[".",".",".",".",".",".","_",".",".","."],[".",".",".",".",".",".","_",".",".","."],[".",".",".",".",".",".","_",".",".","."],[".",".",".",".",".",".","_",".",".","."]],[[13,".",13,12,10,".",10,12],[".",13,".",".",".",13,".","."],[".",".",".",".",".",".",".","."],[".",".",".",".",".",".",".","."],[".",".",".",".",".",".",".","."],[".",".",".",".",".",".",".","."]],[[13,".",13,12,10,".",10,10],[".",13,".",".",".",13,".","."],[".",".",".",".",".",".",".","."],[".",".",".",".",".",".",".","."],[".",".",".",".",".",".",".","."],[".",".",".",".",".",".",".","."]]],"numberofstrings":6,"notes":["E","B","G","D","A","E","B"],"capo":0,"stringnotes":["E4","B3","G3","D3","A2","E2"],"comments":["Stave 1:","Stave 2:","Stave 3:","Stave 4:"],"timing":[["W",null,"W","W","W","W","W","W","W","W","W","W","W","W"],["W",null,"W","W","W","W",null,"W","W","W"],["W","W","W","W","W","W","W","W"],["W","W","W","W","W","W","W","W"]],"timingvisible":false,"tabcounter":8,"stave":3,"totalstaves":4,"instrument":"6guitar","selectedtuning":"6_standard","version":"13"}

Member for

1 year 7 months
Submitted by kasquires22 on Thu, 2019-11-14 19:23