The Wonderful Cross

Chords

01234567891011121314151617181920212223
E
B
G
D
A
E
B
0 1 2 3 4 5 6 7 8 9 10 11 12 13 14 15 16 17 18 19 20 21 22 23
(/) Slide Up  (\) Slide Down  (h) Hammer On  (p) Pull Off  (b) Bend (r) Release (v) Vibrato

Stave 1:

E|--------------------------
B|--------------------------
G|--------------------------
D|--------------------------
A|-5-5-7-9-9-7-9-10-9-7-9-9-
D|-0-0-0-0-0-0-0-0--0-0-0-0-

Stave 2:

E|----------------------
B|----------------------
G|----------------------
D|----------------------
A|-9-9-10-9-7-5-5-4-5-7-
D|-0-0-0--0-0-0-0-0-0-0-

Stave 3:

E|------------------
B|-8----------------
G|-7----6b7b6b7b6---
D|-5--------------7-
A|-5----------------
D|-5----------------

							http://www.guitartabcreator.com
Instruments
{"title":"The Wonderful Cross","strings":[[[".",".",".",".",".",".",".",".",".",".",".","."],[".",".",".",".",".",".",".",".",".",".",".","."],[".",".",".",".",".",".",".",".",".",".",".","."],[".",".",".",".",".",".",".",".",".",".",".","."],[5,5,7,9,9,7,9,10,9,7,9,9],[0,0,0,0,0,0,0,0,0,0,0,0]],[[".",".",".",".",".",".",".",".",".","."],[".",".",".",".",".",".",".",".",".","."],[".",".",".",".",".",".",".",".",".","."],[".",".",".",".",".",".",".",".",".","."],[9,9,10,9,7,5,5,4,5,7],[0,0,0,0,0,0,0,0,0,0]],[[".","_",".",".",".",".",".",".",".",".",".","."],[8,"_",".",".",".",".",".",".",".",".",".","."],[7,"_",6,"b",7,"b",6,"b",7,"b",6,"."],[5,"_",".",".",".",".",".",".",".",".",".",7],[5,"_",".",".",".",".",".",".",".",".",".","."],[5,"_",".",".",".",".",".",".",".",".",".","."]]],"numberofstrings":6,"notes":["E","B","G","D","A","D"],"capo":0,"stringnotes":["E3","B2","G2","D2","A1","D1"],"comments":["Stave 1:","Stave 2:","Stave 3:"],"timing":[["W","W","W","W","W","W","W","W","W","W","W","W"],["W","W","W","W","W","W","W","W","W","W"],["W",null,"W",null,"W",null,"W",null,"W",null,"W","W"]],"timingvisible":false,"tabcounter":12,"stave":2,"totalstaves":3,"instrument":"6guitar","selectedtuning":"6_standard","version":"13"}

Member for

1 year 7 months
Submitted by kasquires22 on Fri, 2020-03-27 21:45