Praises - B

Chords

01234567891011121314151617181920212223
E
B
G
D
A
E
B
0 1 2 3 4 5 6 7 8 9 10 11 12 13 14 15 16 17 18 19 20 21 22 23
(/) Slide Up  (\) Slide Down  (h) Hammer On  (p) Pull Off  (b) Bend (r) Release (v) Vibrato

Stave 1:

E|--------------------------------
B|-------------7----------------9-
G|-----6---6-8----------6---6-8---
D|-6-9---9----------6-9---9-------
A|--------------------------------
E|--------------------------------

Stave 2:

E|----------------------------------
B|-------------7--------------------
G|-----6---6-8----------6---6-8---3-
D|-6-9---9----------6-9---9-----9---
A|----------------------------------
E|----------------------------------

Stave 3:

E|-------------------------------
B|-------16-14-------14----------
G|----------------------16-15b16-
D|-14-16-------13-16-------------
A|-------------------------------
E|-------------------------------

Stave 4:

E|------------------------------14------------
B|-7-9/19-17-5-7/17-16----14-16----16v-12-14v-
G|--------------------------------------------
D|--------------------------------------------
A|--------------------------------------------
E|--------------------------------------------

Stave 5:

E|-----------------------------
B|----17-16----------14v-------
G|-13-------13-15-16-----16-15-
D|-----------------------------
A|-----------------------------
E|-----------------------------

							http://www.guitartabcreator.com
Instruments
{"strings":[[[".",".",".",".",".",".",".","_",".",".",".",".",".",".","."],[".",".",".",".",".",".",7,"_",".",".",".",".",".",".",9],[".",".",6,".",6,8,".","_",".",".",6,".",6,8,"."],[6,9,".",9,".",".",".","_",6,9,".",9,".",".","."],[".",".",".",".",".",".",".","_",".",".",".",".",".",".","."],[".",".",".",".",".",".",".","_",".",".",".",".",".",".","."]],[[".",".",".",".",".",".",".","_",".",".",".",".",".",".",".","."],[".",".",".",".",".",".",7,"_",".",".",".",".",".",".",".","."],[".",".",6,".",6,8,".","_",".",".",6,".",6,8,".",3],[6,9,".",9,".",".",".","_",6,9,".",9,".",".",9,"."],[".",".",".",".",".",".",".","_",".",".",".",".",".",".",".","."],[".",".",".",".",".",".",".","_",".",".",".",".",".",".",".","."]],[[".",".",".",".",".",".",".",".",".",".","."],[".",".",16,14,".",".",14,".",".",".","."],[".",".",".",".",".",".",".",16,15,"b",16],[14,16,".",".",13,16,".",".",".",".","."],[".",".",".",".",".",".",".",".",".",".","."],[".",".",".",".",".",".",".",".",".",".","."]],[[".",".",".",".",".",".",".",".",".",".","_",".",".",14,".",".",".",".","."],[7,9,"/",19,17,5,7,"/",17,16,"_",14,16,".",16,"v",12,14,"v"],[".",".",".",".",".",".",".",".",".",".","_",".",".",".",".",".",".",".","."],[".",".",".",".",".",".",".",".",".",".","_",".",".",".",".",".",".",".","."],[".",".",".",".",".",".",".",".",".",".","_",".",".",".",".",".",".",".","."],[".",".",".",".",".",".",".",".",".",".","_",".",".",".",".",".",".",".","."]],[[".",".",".",".",".",".",".",".",".","."],[".",17,16,".",".",".",14,"v",".","."],[13,".",".",13,15,16,".",".",16,15],[".",".",".",".",".",".",".",".",".","."],[".",".",".",".",".",".",".",".",".","."],[".",".",".",".",".",".",".",".",".","."]]],"numberofstrings":6,"notes":["E","B","G","D","A","E","B"],"capo":0,"stringnotes":["E4","B3","G3","D3","A2","E2"],"comments":["Stave 1:","Stave 2:","Stave 3:","Stave 4:","Stave 5:"],"timing":[["W","W","W","W","W","W","W",null,"W","W","W","W","W","W","W"],["W","W","W","W","W","W","W",null,"W","W","W","W","W","W","W","W"],["W","W","W","W","W","W","W","W",null,"W","W","W","W","W","W","W","W","W",null,"W"],["W","W","W","W","W","W","W","W","W","W","W","W","W","W","W",null,"W","W"],["W","W","W","W","W","W","W",null,"W","W"]],"timingvisible":false,"tabcounter":10,"stave":4,"totalstaves":5,"instrument":"6guitar","selectedtuning":"6_standard","version":"13"}

Member for

1 year 7 months
Submitted by kasquires22 on Fri, 2020-05-01 20:47