No Longer Slaves

Chords

01234567891011121314151617181920212223
E
B
G
D
A
E
B
0 1 2 3 4 5 6 7 8 9 10 11 12 13 14 15 16 17 18 19 20 21 22 23
(/) Slide Up  (\) Slide Down  (h) Hammer On  (p) Pull Off  (b) Bend (r) Release (v) Vibrato

Stave 1:

E|-------7---------7---
B|---8-----8---7-----7-
G|-7---7-----7---7-----
D|---------------------
A|---------------------
E|---------------------

Stave 2:

E|-------5---------7-------7-
B|---5-----5---7-----7---8---
G|-5---5-----7---7-----7-----
D|---------------------------
A|---------------------------
E|---------------------------

Stave 3:

E|---------------------
B|---------------------
G|-----7---------4-7-9-
D|-5-7---5---5-7-------
A|---------7-----------
E|---------------------

							http://www.guitartabcreator.com
Instruments
{"title":"No Longer Slaves","strings":[[[".",".",".",7,".",".",".",".",7,"."],[".",8,".",".",8,".",7,".",".",7],[7,".",7,".",".",7,".",7,".","."],[".",".",".",".",".",".",".",".",".","."],[".",".",".",".",".",".",".",".",".","."],[".",".",".",".",".",".",".",".",".","."]],[[".",".",".",5,".",".",".",".",7,".",".",".",7],[".",5,".",".",5,".",7,".",".",7,".",8,"."],[5,".",5,".",".",7,".",7,".",".",7,".","."],[".",".",".",".",".",".",".",".",".",".",".",".","."],[".",".",".",".",".",".",".",".",".",".",".",".","."],[".",".",".",".",".",".",".",".",".",".",".",".","."]],[[".",".",".",".",".",".",".",".",".","."],[".",".",".",".",".",".",".",".",".","."],[".",".",7,".",".",".",".",4,7,9],[5,7,".",5,".",5,7,".",".","."],[".",".",".",".",7,".",".",".",".","."],[".",".",".",".",".",".",".",".",".","."]]],"numberofstrings":6,"notes":["E","B","G","D","A","E","B"],"capo":0,"stringnotes":["E4","B3","G3","D3","A2","E2"],"comments":["Stave 1:","Stave 2:","Stave 3:"],"timing":[["W","W","W","W","W","W","W","W","W","W","W","W","W","W","W","W","W"],["W","W","W","W","W","W","W","W","W","W","W","W","W"],["W","W","W","W","W","W","W","W","W","W"]],"timingvisible":false,"tabcounter":10,"stave":2,"totalstaves":3,"instrument":"6guitar","selectedtuning":"6_standard","version":"13"}

Member for

1 year 7 months
Submitted by kasquires22 on Tue, 2019-10-22 20:24