Move - A

Chords

01234567891011121314151617181920212223
E
B
G
D
A
E
B
0 1 2 3 4 5 6 7 8 9 10 11 12 13 14 15 16 17 18 19 20 21 22 23
(/) Slide Up  (\) Slide Down  (h) Hammer On  (p) Pull Off  (b) Bend (r) Release (v) Vibrato

Stave 1:

E|-----------------------
B|-----------------------
G|-2-2-2-----2-4-2-2-4-2-
D|-------4-4-------------
A|-----------------------
E|-----------------------

Stave 2:

E|-----------------------
B|---------------------2-
G|-2-2-2-----2-4-2-2-4---
D|-------4-4-------------
A|-----------------------
E|-----------------------

Stave 3:

E|-----------------
B|---5---5---2---2-
G|-2---2---4---4---
D|-----------------
A|-----------------
E|-----------------

Stave 4:

E|------9---------
B|---10-----10-12-
G|-9------9-------
D|----------------
A|----------------
E|----------------

							http://www.guitartabcreator.com
Instruments
{"title":"Move - A","strings":[[[".",".",".",".",".",".",".",".",".",".","."],[".",".",".",".",".",".",".",".",".",".","."],[2,2,2,".",".",2,4,2,2,4,2],[".",".",".",4,4,".",".",".",".",".","."],[".",".",".",".",".",".",".",".",".",".","."],[".",".",".",".",".",".",".",".",".",".","."]],[[".",".",".",".",".",".",".",".",".",".","."],[".",".",".",".",".",".",".",".",".",".",2],[2,2,2,".",".",2,4,2,2,4,"."],[".",".",".",4,4,".",".",".",".",".","."],[".",".",".",".",".",".",".",".",".",".","."],[".",".",".",".",".",".",".",".",".",".","."]],[[".",".",".",".",".",".",".","."],[".",5,".",5,".",2,".",2],[2,".",2,".",4,".",4,"."],[".",".",".",".",".",".",".","."],[".",".",".",".",".",".",".","."],[".",".",".",".",".",".",".","."]],[[".",".",9,".",".","."],[".",10,".",".",10,12],[9,".",".",9,".","."],[".",".",".",".",".","."],[".",".",".",".",".","."],[".",".",".",".",".","."]]],"numberofstrings":6,"notes":["E","B","G","D","A","E","B"],"capo":0,"stringnotes":["E4","B3","G3","D3","A2","E2"],"comments":["Stave 1:","Stave 2:","Stave 3:","Stave 4:"],"timing":[["W","W","W","W","W","W","W","W","W","W","W"],["W","W","W","W","W","W","W","W","W","W","W"],["W","W","W","W","W","W","W","W"],["W","W","W","W","W","W"]],"timingvisible":false,"tabcounter":6,"stave":3,"totalstaves":4,"instrument":"6guitar","selectedtuning":"6_standard","version":"13"}

Member for

1 year 7 months
Submitted by kasquires22 on Tue, 2019-10-22 18:46