Let Love A

Chords

01234567891011121314151617181920212223
E
B
G
D
A
E
B
0 1 2 3 4 5 6 7 8 9 10 11 12 13 14 15 16 17 18 19 20 21 22 23
(/) Slide Up  (\) Slide Down  (h) Hammer On  (p) Pull Off  (b) Bend (r) Release (v) Vibrato

Stave 1:

E|------------------------------------
B|------------------------------------
G|--4/6--9----------6/9--14--13--6/9--
D|----------7/8--7--------------------
A|------------------------------------
E|------------------------------------

Stave 2:

E|-------------------------------
B|-------------------------------
G|--4/6---------6/9--14\13--6/9--
D|-------7\6\2-------------------
A|-------------------------------
E|-------------------------------

							http://www.guitartabcreator.com
Instruments
{"title":"Let Love A","strings":[[[".",".",".",".",".",".",".",".",".",".",".",".",".",".",".","."],[".",".",".",".",".",".",".",".",".",".",".",".",".",".",".","."],[4,"/",6,9,".",".",".",".",6,"/",9,14,13,6,"/",9],[".",".",".",".",7,"/",8,7,".",".",".",".",".",".",".","."],[".",".",".",".",".",".",".",".",".",".",".",".",".",".",".","."],[".",".",".",".",".",".",".",".",".",".",".",".",".",".",".","."]],[[".",".",".",".",".",".",".",".",".",".",".",".",".",".",".",".","."],[".",".",".",".",".",".",".",".",".",".",".",".",".",".",".",".","."],[4,"/",6,".",".",".",".",".",6,"/",9,14,"\\",13,6,"/",9],[".",".",".",7,"\\",6,"\\",2,".",".",".",".",".",".",".",".","."],[".",".",".",".",".",".",".",".",".",".",".",".",".",".",".",".","."],[".",".",".",".",".",".",".",".",".",".",".",".",".",".",".",".","."]]],"numberofstrings":6,"notes":["E","B","G","D","A","E","B"],"capo":0,"stringnotes":["E4","B3","G3","D3","A2","E2"],"comments":["Stave 1:","Stave 2:"],"timing":[["W",null,"W","W","W",null,"W","W","W",null,"W","W","W","W",null,"W"],["W",null,"W","W",null,"W",null,"W","W",null,"W","W","W","W","W",null,"W"]],"timingvisible":false,"tabcounter":17,"stave":1,"totalstaves":2,"instrument":"6guitar","selectedtuning":"6_standard","version":"13"}

Member for

1 year 7 months
Submitted by kasquires22 on Fri, 2019-12-06 18:59