King of My Heart - D

Chords

01234567891011121314151617181920212223
E
B
G
D
A
E
B
0 1 2 3 4 5 6 7 8 9 10 11 12 13 14 15 16 17 18 19 20 21 22 23
(/) Slide Up  (\) Slide Down  (h) Hammer On  (p) Pull Off  (b) Bend (r) Release (v) Vibrato

Stave 1:

E|--2/10--9--10----------
B|---------------12--10--
G|-----------------------
D|-----------------------
A|-----------------------
E|-----------------------

Stave 2:

E|--------------------------
B|-----------------7--------
G|--7--7--7--7--9-----9--7--
D|--------------------------
A|--------------------------
E|--------------------------

Stave 3:

E|------------------------------
B|--8--8--8--8--7--7--7--7--10--
G|------------------------------
D|------------------------------
A|------------------------------
E|------------------------------

Stave 4:

E|--------10-----------10-----
B|-----7------7-----7------7--
G|--7------------7------------
D|----------------------------
A|----------------------------
E|----------------------------

Stave 5:

E|----------10----------10--
B|------10----------10------
G|--12----------11----------
D|--------------------------
A|--------------------------
E|--------------------------

							http://www.guitartabcreator.com
Instruments
{"title":"King of My Heart - D","strings":[[[2,"/",10,9,10,".","."],[".",".",".",".",".",12,10],[".",".",".",".",".",".","."],[".",".",".",".",".",".","."],[".",".",".",".",".",".","."],[".",".",".",".",".",".","."]],[[".",".",".",".",".",".",".","."],[".",".",".",".",".",7,".","."],[7,7,7,7,9,".",9,7],[".",".",".",".",".",".",".","."],[".",".",".",".",".",".",".","."],[".",".",".",".",".",".",".","."]],[[".",".",".",".",".",".",".",".","."],[8,8,8,8,7,7,7,7,10],[".",".",".",".",".",".",".",".","."],[".",".",".",".",".",".",".",".","."],[".",".",".",".",".",".",".",".","."],[".",".",".",".",".",".",".",".","."]],[[".",".",10,".",".",".",10,"."],[".",7,".",7,".",7,".",7],[7,".",".",".",7,".",".","."],[".",".",".",".",".",".",".","."],[".",".",".",".",".",".",".","."],[".",".",".",".",".",".",".","."]],[[".",".",10,".",".",10],[".",10,".",".",10,"."],[12,".",".",11,".","."],[".",".",".",".",".","."],[".",".",".",".",".","."],[".",".",".",".",".","."]]],"numberofstrings":6,"notes":["E","B","G","D","A","E","B"],"capo":0,"stringnotes":["E4","B3","G3","D3","A2","E2"],"comments":["Stave 1:","Stave 2:","Stave 3:","Stave 4:","Stave 5:"],"timing":[["W","W","W","W","W","W","W"],["W",null,"W","W","W","W","W"],["W","W","W","W","W","W","W","W"],["W","W","W","W","W","W","W","W"],["W","W","W","W","W","W"]],"timingvisible":false,"tabcounter":6,"stave":4,"totalstaves":5,"instrument":"6guitar","selectedtuning":"6_standard","version":"13"}

Member for

1 year 7 months
Submitted by kasquires22 on Sat, 2020-02-08 16:21