Came To My Rescue

Chords

01234567891011121314151617181920212223
E
B
G
D
A
E
B
0 1 2 3 4 5 6 7 8 9 10 11 12 13 14 15 16 17 18 19 20 21 22 23
(/) Slide Up  (\) Slide Down  (h) Hammer On  (p) Pull Off  (b) Bend (r) Release (v) Vibrato

Stave 1:

E|-------------------5-------------------
B|--5--5--8--8----------8--8--8--5h6--6--
G|--5--5--5--5--5h7--------5--5--5----5--
D|---------------------------------------
A|---------------------------------------
E|---------------------------------------

Stave 2:

E|------------------15--15--13--13--
B|--13--13--12--12--13--13--13--13--
G|--12--12--12--12--12--12--12--12--
D|--10--10--10--10--12--12--12--12--
A|----------------------------------
E|----------------------------------

							http://www.guitartabcreator.com
Instruments
{"strings":[[[".",".",".",".",".",".",".",5,".",".",".",".",".",".","."],[5,5,8,8,".",".",".",".",8,8,8,5,"h",6,6],[5,5,5,5,5,"h",7,".",".",5,5,5,".",".",5],[".",".",".",".",".",".",".",".",".",".",".",".",".",".","."],[".",".",".",".",".",".",".",".",".",".",".",".",".",".","."],[".",".",".",".",".",".",".",".",".",".",".",".",".",".","."]],[[".",".",".",".",15,15,13,13],[13,13,12,12,13,13,13,13],[12,12,12,12,12,12,12,12],[10,10,10,10,12,12,12,12],[".",".",".",".",".",".",".","."],[".",".",".",".",".",".",".","."]]],"numberofstrings":6,"notes":["E","B","G","D","A","E","B"],"capo":0,"stringnotes":["E4","B3","G3","D3","A2","E2"],"comments":["Stave 1:","Stave 2:"],"timing":[["W","W","W","W","W",null,"W","W","W","W","W","W","W","W","W"],["W","W","W","W","W","W","W","W"]],"timingvisible":false,"tabcounter":7,"stave":1,"totalstaves":2,"instrument":"6guitar","selectedtuning":"6_standard","version":"13"}

Member for

1 year 7 months
Submitted by kasquires22 on Fri, 2020-08-14 16:43