Sound will begin in 5 seconds

pink elephants

Chords
01234567891011121314151617181920212223
E
B
G
D
A
E
B
0 1 2 3 4 5 6 7 8 9 10 11 12 13 14 15 16 17 18 19 20 21 22 23
Song Science #1: How Pros Use 6 Chords to Write Hit Songs
(/) Slide Up  (\) Slide Down  (h) Hammer On  (p) Pull Off  (b) Bend (r) Release (v) Vibrato

Stave 1:

E|--12--12--12--------------------------
B|--------------13--13--13------13------
G|--------------------------14------14--
D|--------------------------------------
A|--------------------------------------
E|--------------------------------------

Stave 2:

E|--------------12-----------------12--
B|--13------13---------13------13------
G|------14-----------------14----------
D|-------------------------------------
A|-------------------------------------
E|-------------------------------------

Stave 3:

E|--
B|--
G|--
D|--
A|--
E|--

Stave 4:

E|--------------------------------------
B|--------------------------------------
G|--------------------------------------
D|--9--9--9--5--5--5--2--5--2-----------
A|--7--7--7--3--3--3--0--3--0--2--------
E|-----------------------------0--12\0--

Stave 5:

E|-----
B|-----
G|-----
D|-----
A|-----
E|-----

Stave 6:

E|--
B|--
G|--
D|--
A|--
E|--

Stave 7:

E|--
B|--
G|--
D|--
A|--
E|--

Stave 8:

E|------------------------------------------------------------
B|------------------------------------------------------------
G|------------------------------------------------------------
D|-----2-----2--2-----2--2-----2-----8--9\2-----2-----8--9\2--
A|-----0-----0--0-----0--0-----0-----6--7-------0-----6--7----
E|------------------------------------------------------------

Stave 9:

E|--------------12---------11-----12---------11-----12--------------12------
B|----------13---------13----------------13-------------13--11--13------13--
G|------14------------------------------------------------------------------
D|--15----------------------------------------------------------------------
A|--------------------------------------------------------------------------
E|--------------------------------------------------------------------------

Stave 10:

E|-----------------------------------------------
B|-----------------------------------------------
G|-----------------------------------------------
D|--2--2-----------------------------------------
A|--0--0--5--5--3--3--2--2-----3--3--5--5--3--3--
E|--------3--3--1--1--0--0-----1--1--3--3--1--1--

Stave 11:

E|-----------------------------------------------
B|-----------------------------------------------
G|-----------------------------------------------
D|--2--2--------------------2--2-----------------
A|--0--0--5--5--3--3--2--2--0--0--5--5--3--3--2--
E|--------3--3--1--1--0--0--------3--3--1--1--0--

Stave 12:

E|--
B|--
G|--
D|--
A|--
E|--

http://www.guitartabcreator.com
Guitar Tab Creator is intended to store guitar tab created through the tool. It currently does not support in-line text editing. Any text you place in here will be lost. If you need to comment on your tab, please use the "Tab Notes" section located below.