Sound will begin in 5 seconds

b solo

01234567891011121314151617181920212223
E
B
G
D
A
E
B
0 1 2 3 4 5 6 7 8 9 10 11 12 13 14 15 16 17 18 19 20 21 22 23
Song Science #1: How Pros Use 6 Chords to Write Hit Songs
(/) Slide Up  (\) Slide Down  (h) Hammer On  (p) Pull Off  (b) Bend (r) Release (v) Vibrato

Stave 1:

Eb|--15h18p15h18p15h17p15h17p15-------------------------------------------------------
Bb|------------------------------18p15h18p15--------------15------15--18--------------
Gb|-------------------------------------------17--15--17------17----------17--15--17--
Db|-----------------------------------------------------------------------------------
Ab|-----------------------------------------------------------------------------------
Eb|-----------------------------------------------------------------------------------

Stave 2:

Eb|------------------------------------------------------------------------------------------------------
Bb|------------------------------------------------------------------------------------------------------
Gb|-----------------------------------------------------------10------10--12b13-----12b13-----12b13v-----
Db|-----------------------10------10-----10--13--12b13b12---------12-------------------------------------
Ab|--10--13--12b13b12---------12-------------------------------------------------------------------------
Eb|------------------------------------------------------------------------------------------------------

Stave 3:

Eb|-----------------------------------------
Bb|-----------------------------------------
Gb|--12b13--12--10--------------------------
Db|-----------------12--10--12p10h12p10--12r
Ab|-----------------------------------------
Eb|-----------------------------------------

Stave 4:

Eb|--10h13p10-----10h13p10---------
Bb|-------------------------13b15--
Gb|--------------------------------
Db|--------------------------------
Ab|--------------------------------
Eb|--------------------------------

http://www.guitartabcreator.com
Guitar Tab Creator is intended to store guitar tab created through the tool. It currently does not support in-line text editing. Any text you place in here will be lost. If you need to comment on your tab, please use the "Tab Notes" section located below.