Private Investigations - Dire Straits

01234567891011121314151617181920212223
E
B
G
D
A
E
B
0 1 2 3 4 5 6 7 8 9 10 11 12 13 14 15 16 17 18 19 20 21 22 23
(/) Slide Up  (\) Slide Down  (h) Hammer On  (p) Pull Off  (b) Bend (r) Release (v) Vibrato

Stave 1:

E|-----------------------------------------3/7v--------------------------------------
B|-----8v--5/7--7v-----7p5h7--8--5v-----3--------8/10--10v-----10p8h10v--10/12-------
G|------------------------------------------------------------------------------12v--
D|--9--------------------------------------------------------------------------------
A|-----------------------------------------------------------------------------------
E|-----------------------------------------------------------------------------------

Stave 2:

E|-----------3--2p0--3/5-------------------------------
B|--------2---------------5--5v-----------7--7--8------
G|-----3-------------------------------8-----------9v--
D|--2-------------------------------9------------------
A|-----------------------------------------------------
E|-----------------------------------------------------

							http://www.guitartabcreator.com
Chords

Instruments
{"strings":[[[".",".",".",".",".",".",".",".","_",".",".",".",".",".",".",".",".","_",".",3,"/",7,"v",".",".",".",".",".","_",".",".",".",".",".",".",".",".",".",".","."],[".",8,"v",5,"/",7,7,"v","_",7,"p",5,"h",7,8,5,"v","_",3,".",".",".",".",8,"/",10,10,"v","_",10,"p",8,"h",10,"v",10,"/",12,".","."],[".",".",".",".",".",".",".",".","_",".",".",".",".",".",".",".",".","_",".",".",".",".",".",".",".",".",".",".","_",".",".",".",".",".",".",".",".",".",12,"v"],[9,".",".",".",".",".",".",".","_",".",".",".",".",".",".",".",".","_",".",".",".",".",".",".",".",".",".",".","_",".",".",".",".",".",".",".",".",".",".","."],[".",".",".",".",".",".",".",".","_",".",".",".",".",".",".",".",".","_",".",".",".",".",".",".",".",".",".",".","_",".",".",".",".",".",".",".",".",".",".","."],[".",".",".",".",".",".",".",".","_",".",".",".",".",".",".",".",".","_",".",".",".",".",".",".",".",".",".",".","_",".",".",".",".",".",".",".",".",".",".","."]],[[".",".",".",3,2,"p",0,3,"/",5,".",".",".","_",".",".",".",".",".",".","."],[".",".",2,".",".",".",".",".",".",".",5,5,"v","_",".",".",7,7,8,".","."],[".",3,".",".",".",".",".",".",".",".",".",".",".","_",".",8,".",".",".",9,"v"],[2,".",".",".",".",".",".",".",".",".",".",".",".","_",9,".",".",".",".",".","."],[".",".",".",".",".",".",".",".",".",".",".",".",".","_",".",".",".",".",".",".","."],[".",".",".",".",".",".",".",".",".",".",".",".",".","_",".",".",".",".",".",".","."]]],"numberofstrings":6,"notes":["E","B","G","D","A","E","B"],"capo":0,"stringnotes":["E4","B3","G3","D3","A2","E2"],"comments":["Stave 1:","Stave 2:"],"timing":[["W","W",null,"W",null,"W","W",null,"W","W",null,"W",null,"W","W","W",null,"W","W","W",null,"W",null,"W",null,"W","W",null,"W","W",null,"W",null,"W",null,"W",null,"W","W"],["W","W","W","W","W",null,"W","W",null,"W","W","W",null,"W","W","W","W","W","W","W"]],"timingvisible":false,"tabcounter":21,"stave":1,"totalstaves":2,"instrument":"6guitar","selectedtuning":"6_standard","version":"13"}

Member for

1 year 5 months
Submitted by Karloz on Fri, 2021-10-01 05:28