Love over Gold - Dire Straits

01234567891011121314151617181920212223
E
B
G
D
A
E
B
0 1 2 3 4 5 6 7 8 9 10 11 12 13 14 15 16 17 18 19 20 21 22 23
(/) Slide Up  (\) Slide Down  (h) Hammer On  (p) Pull Off  (b) Bend (r) Release (v) Vibrato

Stave 1:

E|--|----------5---------------|---------5----------------------
B|--|-------6-----8--8--8p6h8--|--8p6h8-----------5--6--5-------
G|--|--5/7---------------------|------------7--------------5/7--
D|--|--------------------------|--------------------------------
A|--|--------------------------|--------------------------------
E|--|--------------------------|--------------------------------

Stave 2:

E|--|----------5---------------|---------5--------------5--
B|--|-------6-----8--8--8p6h8--|--8p6h8-----6--------6-----
G|--|--5/7---------------------|------------------7--------
D|--|--------------------------|---------------------------
A|--|--------------------------|---------------------------
E|--|--------------------------|---------------------------

Stave 3:

E|--
B|--
G|--
D|--
A|--
E|--

							http://www.guitartabcreator.com
Chords

Instruments
{"strings":[[["|",".",".",".",".",5,".",".",".",".",".",".",".","|",".",".",".",".",".",5,".","_",".",".",".",".",".","."],["|",".",".",".",6,".",8,8,8,"p",6,"h",8,"|",8,"p",6,"h",8,".",".","_",5,6,5,".",".","."],["|",5,"/",7,".",".",".",".",".",".",".",".",".","|",".",".",".",".",".",".",7,"_",".",".",".",5,"/",7],["|",".",".",".",".",".",".",".",".",".",".",".",".","|",".",".",".",".",".",".",".","_",".",".",".",".",".","."],["|",".",".",".",".",".",".",".",".",".",".",".",".","|",".",".",".",".",".",".",".","_",".",".",".",".",".","."],["|",".",".",".",".",".",".",".",".",".",".",".",".","|",".",".",".",".",".",".",".","_",".",".",".",".",".","."]],[["|",".",".",".",".",5,".",".",".",".",".",".",".","|",".",".",".",".",".",5,".","_",".",".",5],["|",".",".",".",6,".",8,8,8,"p",6,"h",8,"|",8,"p",6,"h",8,".",6,"_",".",6,"."],["|",5,"/",7,".",".",".",".",".",".",".",".",".","|",".",".",".",".",".",".",".","_",7,".","."],["|",".",".",".",".",".",".",".",".",".",".",".",".","|",".",".",".",".",".",".",".","_",".",".","."],["|",".",".",".",".",".",".",".",".",".",".",".",".","|",".",".",".",".",".",".",".","_",".",".","."],["|",".",".",".",".",".",".",".",".",".",".",".",".","|",".",".",".",".",".",".",".","_",".",".","."]],[[],[],[],[],[],[]]],"numberofstrings":6,"notes":["E","B","G","D","A","E","B"],"capo":0,"stringnotes":["E4","B3","G3","D3","A2","E2"],"comments":["Stave 1:","Stave 2:","Stave 3:"],"timing":[[null,"W",null,"W","W","W","W","W","W",null,"W",null,"W",null,"W",null,"W",null,"W","W","W","W","W","W","W","W",null,"W"],[null,"W",null,"W","W","W","W","W","W",null,"W",null,"W",null,"W",null,"W",null,"W","W","W","W","W","W","W"],[]],"timingvisible":false,"tabcounter":0,"stave":2,"totalstaves":3,"instrument":"6guitar","selectedtuning":"6_standard","version":"13"}

Member for

1 year 5 months
Submitted by Karloz on Sat, 2021-10-02 09:28