Lembrei-me - Bispo

01234567891011121314151617181920212223
E
B
G
D
A
E
B
0 1 2 3 4 5 6 7 8 9 10 11 12 13 14 15 16 17 18 19 20 21 22 23
(/) Slide Up  (\) Slide Down  (h) Hammer On  (p) Pull Off  (b) Bend (r) Release (v) Vibrato

Stave 1:

E|-----------0--|--------2--|-----------3--|-------------10------|-----
B|--------0-----|--2--------|--------3-----|-----------------12--|-----
G|--------------|-----------|-----0--------|---------------------|-----
D|-----2--------|-----------|--2-----------|---------12----------|-----
A|--3-----------|--3--------|--------------|--10-----------------|-----
E|--------------|-----------|--------------|---------------------|-----

Stave 2:

E|-----------0--|--------2--|-----------------|-----3p0-----7--
B|--------0-----|--3--------|--------------1--|-----1----0-----
G|--------------|-----------|-----------2-----|----------------
D|-----2--------|-----------|--------2--------|----------------
A|--3-----------|--2--------|--0--------------|----------------
E|--------------|-----------|-----------------|----------------

Stave 3:

E|-----------0--|--------2--|-----------3--|-------------10------
B|--------0-----|--2--------|--------3-----|-----------------12--
G|--------------|-----------|-----0--------|---------------------
D|-----2--------|-----------|--2-----------|---------12----------
A|--3-----------|--3--------|--------------|--10-----------------
E|--------------|-----------|--------------|---------------------

Stave 4:

E|-----------0--|--------2--|-----------------------------
B|--------0-----|--3--------|-----------------------------
G|--------------|-----------|----------------------2/4\2--
D|-----2--------|-----------|--0p2--0--------0--2---------
A|--3-----------|--2--------|-----------------------------
E|--------------|-----------|-----------------------------

							http://www.guitartabcreator.com
Chords

Instruments
{"strings":[[[".",".",".",0,"|",".","_",2,"|",".",".",".",3,"|",".","_",".",10,".","|","."],[".",".",0,".","|",2,"_",".","|",".",".",3,".","|",".","_",".",".",12,"|","."],[".",".",".",".","|",".","_",".","|",".",0,".",".","|",".","_",".",".",".","|","."],[".",2,".",".","|",".","_",".","|",2,".",".",".","|",".","_",12,".",".","|","."],[3,".",".",".","|",3,"_",".","|",".",".",".",".","|",10,"_",".",".",".","|","."],[".",".",".",".","|",".","_",".","|",".",".",".",".","|",".","_",".",".",".","|","."]],[[".",".",".",0,"|",".","_",2,"|",".","_",".",".",".","|",".",3,"p",0,".",7],[".",".",0,".","|",3,"_",".","|",".","_",".",".",1,"|",".",1,".",".",0,"."],[".",".",".",".","|",".","_",".","|",".","_",".",2,".","|",".",".",".",".",".","."],[".",2,".",".","|",".","_",".","|",".","_",2,".",".","|",".",".",".",".",".","."],[3,".",".",".","|",2,"_",".","|",0,"_",".",".",".","|",".",".",".",".",".","."],[".",".",".",".","|",".","_",".","|",".","_",".",".",".","|",".",".",".",".",".","."]],[[".",".",".",0,"|",".","_",2,"|",".",".",".",3,"|",".","_",".",10,"."],[".",".",0,".","|",2,"_",".","|",".",".",3,".","|",".","_",".",".",12],[".",".",".",".","|",".","_",".","|",".",0,".",".","|",".","_",".",".","."],[".",2,".",".","|",".","_",".","|",2,".",".",".","|",".","_",12,".","."],[3,".",".",".","|",3,"_",".","|",".",".",".",".","|",10,"_",".",".","."],[".",".",".",".","|",".","_",".","|",".",".",".",".","|",".","_",".",".","."]],[[".",".",".",0,"|",".","_",2,"|",".",".",".",".",".","_",".",".",".",".",".",".","."],[".",".",0,".","|",3,"_",".","|",".",".",".",".",".","_",".",".",".",".",".",".","."],[".",".",".",".","|",".","_",".","|",".",".",".",".",".","_",".",".",2,"/",4,"\\",2],[".",2,".",".","|",".","_",".","|",0,"p",2,0,".","_",0,2,".",".",".",".","."],[3,".",".",".","|",2,"_",".","|",".",".",".",".",".","_",".",".",".",".",".",".","."],[".",".",".",".","|",".","_",".","|",".",".",".",".",".","_",".",".",".",".",".",".","."]]],"numberofstrings":6,"notes":["E","B","G","D","A","E","B"],"capo":0,"stringnotes":["E4","B3","G3","D3","A2","E2"],"comments":["Stave 1:","Stave 2:","Stave 3:","Stave 4:"],"timing":[["W","W","W","W",null,"W",null,"W",null,"W","W","W","W",null,"W",null,"W","W","W"],["W","W","W","W",null,"W",null,"W",null,"W",null,"W","W","W",null,null,null,"W",null,"W","W","W"],["W","W","W","W",null,"W",null,"W",null,"W","W","W","W",null,"W",null,"W","W","W"],["W","W","W","W","W","W","W","W",null,"W","W",null,"W","W",null,"W","W","W","W","W",null,"W"]],"timingvisible":false,"tabcounter":22,"stave":3,"totalstaves":4,"instrument":"6guitar","selectedtuning":"6_standard","version":"13"}

Member for

1 year 5 months
Submitted by Karloz on Wed, 2020-11-11 10:27