Sound will begin in 5 seconds

absolutely no escape

01234567891011121314151617181920212223
E
B
G
D
A
E
B
0 1 2 3 4 5 6 7 8 9 10 11 12 13 14 15 16 17 18 19 20 21 22 23
Song Science #1: How Pros Use 6 Chords to Write Hit Songs
(/) Slide Up  (\) Slide Down  (h) Hammer On  (p) Pull Off  (b) Bend (r) Release (v) Vibrato

Stave 1:

E|--------------------------------------------------------
B|--------------------------------------------------------
G|--------------------------------------------------------
D|--------------------------------------------------------
A|---------6---------------6------------------------------
E|-3-2-0-2---3-2-3-3-2-0-2---3-2-3----3-3-2-2-0-0-0-0-0-0-

Stave 2:

E|--------------------------------------------------------
B|--------------------------------------------------------
G|--------------------------------------------------------
D|--------------------------------------------------------
A|---------6---------------6------------------------------
E|-3-2-0-2---3-2-3-3-2-0-2---3-2-3----7-7-6-6-0-0-0-0-0-0-

Stave 3:

E|--------------------------------------
B|--------------------------------------
G|-------------0------------------------
D|-----------4--------------------------
A|---------6----------------------------
E|-3-2-0-2----------3-2-0-2-0-0-0-0-0-0-

Stave 4:

E|-------------------------------------
B|-------------------------------------
G|-------------------------------------
D|-------------------------------------
A|-------------------------------------
E|-3-2----------------2-1-------0----0-

Stave 5:

E|---------------------------------------------
B|---------------------------------------------
G|---------------------------------------------
D|---------5p0---------5p0-----------------5h8-
A|-----4p0---------4p0-------------4h7-4h7-----
E|-3-2---------3-2---------3-2-3h6-------------

Stave 6:

E|-----------------------------
B|-----------------------------
G|-----------------------------
D|-----------------------------
A|-----------------------------
E|-3-2-1-1-3-2-1-1-3-2-1-1-3-2-

Stave 7:

E|----------------------------------------------
B|----------------------------------------------
G|----------------------------------------------
D|----------------------------------------------
A|---------6-------------6----------------------
E|-3-2-0-2---3-2-3b3-2-3---3-2-0----3-2-7-7-7-7-

Stave 8:

E|-----------------------------
B|-----------------------------
G|-----------------------------
D|-----6---6---6---6---6---6---
A|-------5---5---5---5---5---5-
E|-0-0-------------------------

Stave 9:

E|---------------------------------------------
B|---------------------------------------------
G|---------------------------------------------
D|---------------------------------------------
A|-----------------------------5-5-5-----5-5-5-
E|-0-3-2-0-3-2-0-2-1-0-2-1-0-0-------0-0-------

Stave 10:

E|-----------------------------------------------------
B|-----------------------------------------------------
G|-----------------------------------------------------
D|-----------------------------------------------------
A|-----5-6-5-----5-6-5---5-6-5-------------------------
E|-0-0-------0-0-------0-------0-3-2-0-3-2-0-2-1-0-2-1-

http://www.guitartabcreator.com
Guitar Tab Creator is intended to store guitar tab created through the tool. It currently does not support in-line text editing. Any text you place in here will be lost. If you need to comment on your tab, please use the "Tab Notes" section located below.