Sound will begin in 5 seconds

EGOIST - Ghost~of~a~smile (Melody)

01234567891011121314151617181920212223
E
B
G
D
A
E
B
0 1 2 3 4 5 6 7 8 9 10 11 12 13 14 15 16 17 18 19 20 21 22 23
Song Science #1: How Pros Use 6 Chords to Write Hit Songs
(/) Slide Up  (\) Slide Down  (h) Hammer On  (p) Pull Off  (b) Bend (r) Release (v) Vibrato

Stave 1:

E|-------------------------------------------5-------------8-7-5-----------------8-7-5-----
B|-5-5-5h6-5/3---3h5-3-3h5---------5-5-5h6-8---8-8-8-6-5/3-------8-6-5---------5-------8-6-
G|-------------5-----------5-5-5/2-------------------------------------5-7-5-7-------------
D|-----------------------------------------------------------------------------------------
A|-----------------------------------------------------------------------------------------
E|-----------------------------------------------------------------------------------------

Stave 2:

E|-----------------------------------------------------------------------------------
B|-5---------5-5---------------------------3h5-3-3/1---------------------------------
G|---5-7-5-7-----7-5-5-5-5-4h5-5-5-5/4/2p0-----------5-5-5-5-4\5-5-5-5/4/2p0-5-5-5-5-
D|-----------------------------------------------------------------------------------
A|-----------------------------------------------------------------------------------
E|-----------------------------------------------------------------------------------

Stave 3:

E|-----------------------------------------------------------------------------5-------
B|-----------------------------------------------5h6-5-5---------5---------------5-----
G|-4h5-5-5-5/4/2p0-5-5-5-5-4h5-5-5-5h7\9-9/7-4-4---------5-7-5-7---7-5-7-5-7-5-----7-5-
D|-------------------------------------------------------------------------------------
A|-------------------------------------------------------------------------------------
E|-------------------------------------------------------------------------------------

Stave 4:

E|-------------------------
B|-------------------------
G|-5-----------------------
D|---7-9-9h10-10-----------
A|---------------11-10/8-8-
E|-------------------------

http://www.guitartabcreator.com
Guitar Tab Creator is intended to store guitar tab created through the tool. It currently does not support in-line text editing. Any text you place in here will be lost. If you need to comment on your tab, please use the "Tab Notes" section located below.