Sound will begin in 5 seconds

Location

Chords
01234567891011121314151617181920212223
E
B
G
D
A
E
B
0 1 2 3 4 5 6 7 8 9 10 11 12 13 14 15 16 17 18 19 20 21 22 23
(/) Slide Up  (\) Slide Down  (h) Hammer On  (p) Pull Off  (b) Bend (r) Release (v) Vibrato

No Capo

E|--4--4--5--4-----------------4--
B|--5--------4--4--7--5--4--4-----
G|--6--------5-----------4--4-----
D|--6--------4-----------2--4-----
A|-----------6-----------4--2-----
E|--5--------4--------------------

Capo 2nd Fret

E|--2--2--3--2-----------------2--
B|--3--------2--2--5--3--2--2-----
G|--4--------3-----------2--2-----
D|--4--------2-----------0--2-----
A|-----------4-----------2--0-----
E|--3--------2--------------------

Capo 4th Fret

E|--0--0--1--0-----------------0--
B|--1--------0--0--3--1--0--0-----
G|--2--------1-----------0--0-----
D|--3--------0-----------2--0-----
A|-----------2-----------0--------
E|-----------0--------------3-----

http://www.guitartabcreator.com
Guitar Tab Creator is intended to store guitar tab created through the tool. It currently does not support in-line text editing. Any text you place in here will be lost. If you need to comment on your tab, please use the "Tab Notes" section located below.