Sound will begin in 5 seconds

Bohemian Rhapsody by Queen tabbed

Chords
01234567891011121314151617181920212223
E
B
G
D
A
E
B
0 1 2 3 4 5 6 7 8 9 10 11 12 13 14 15 16 17 18 19 20 21 22 23
Song Science #1: How Pros Use 6 Chords to Write Hit Songs
(/) Slide Up  (\) Slide Down  (h) Hammer On  (p) Pull Off  (b) Bend (r) Release (v) Vibrato

Stave 1:

E|--------------------------------------------------------------------------------------------
B|--------------------------------------------------------------------------------------------
G|--10--10--10--10-----10-----9--9--10--9--7----------8--8--8--8-----------7--7--8--7---------
D|--------------------------------------------10v--------------------------------------10--8--
A|----------------------------------------------------------------8--8--8---------------------
E|--------------------------------------------------------------------------------------------

Stave 2:

E|-----------------------------------------------------------------------------------------------
B|-----------------------------------6h8--6h8--8--8--6h8--6h8v--6--6--6h8--6---------------------
G|--7--8--7-----7--7--7--8--8h10--------------------------------------------------------8--8--8--
D|-----------8--------------------8-------------------------------------------9--10--8-----------
A|-----------------------------------------------------------------------------------------------
E|-----------------------------------------------------------------------------------------------

Stave 3:

E|----------------------------------------------------------------------------------------------
B|-----------------------------------8--8--8--8--6h8p6--6--5--5--5--5--6------------------------
G|--7--6--6--7--8--8--7--6--6--7---------------------------------------------------5------------
D|------------------------------------------------------------------------------------7/8--8\0--
A|------------------------------------------------------------------------8--8--6---------------
E|----------------------------------------------------------------------------------------------

Stave 4:

E|-------------------------------------------------------------------------------------------------------
B|---------------------------------------6--------------------6---------------------------6--8/10--8--8--
G|--7--5h7--------5--7--7\0-----7--7--8-----8--7--5--5--7--8-----8--7--5-----7--5h7--5h7-----------------
D|-------------------------------------------------------------------------------------------------------
A|-------------8-----------------------------------------------------------------------------------------
E|-------------------------------------------------------------------------------------------------------

Stave 5:

E|-------------------------------------------------------------------------------------------------------
B|--8--10h11--11--11--11--11--8------------------8--6h8--6h8b9--8--8--8h9--8--8--6--6--------6--6--8--8--
G|-------------------------------8\7---------------------------------------------------------------------
D|------------------------------------10--10-------------------------------------------6--8--------------
A|-------------------------------------------------------------------------------------------------------
E|-------------------------------------------------------------------------------------------------------

Stave 6:

E|--------6----------------6v----------------------------------------------------------------
B|--9--9-----9p8--8--6--8------6--8----------------------------------------------------------
G|-----------------------------------8-----------6-----6-------------------------------------
D|--------------------------------------8--8--9-----9-----9--9p8--8--------------------------
A|-------------------------------------------------------------------------------------------
E|-------------------------------------------------------------------------------------------

Stave 7:

E|---------------------------10--8------------------------------------------------------------
B|--8--6--8--6--8--6--10--8---------8--6--10--8-----------------------------------------------
G|--------------------------------------------------------------------------------------------
D|-----------------------------------------------------------8-----5-----2--1--0--3--3--3-----
A|-----------------------------------------------------------6--5--3--------------1--1--1-----
E|--------------------------------------------------5--4--3-----------1-----------------------

Stave 8:

E|-----------------------------------------------------------------------15--17--18--
B|-----------------11--8--11b12--11--13--15--16--13--15--16--16--13--18--------------
G|--------10b11p8--------------------------------------------------------------------
D|--8--8-----------------------------------------------------------------------------
A|-----------------------------------------------------------------------------------
E|-----------------------------------------------------------------------------------

Stave 9:

E|--18--18--16--15--16--15h16p15------15-------------------------------------------------
B|--------------------------------18------18--16--16--15--16--15h16p15------15-----------
G|----------------------------------------------------------------------17------17--15v--
D|---------------------------------------------------------------------------------------
A|---------------------------------------------------------------------------------------
E|---------------------------------------------------------------------------------------

Stave 10:

E|----------------------15--16--18-------------------------15--16--18--18b19-----
B|----------15--16--18-------------------------15--16--18------------------------
G|--15--17-----------------------------15--17------------------------------------
D|-------------------------------------------------------------------------------
A|-------------------------------------------------------------------------------
E|-------------------------------------------------------------------------------

Stave 11:

E|-----------------------------------------------------13--------------------------------------
B|--15--16--13--15--16--13--15--16--16b17----------------------14--14--14--14--14\0------------
G|-----------------------------------------10--12--13------13------------------------6h7p6-----
D|------------------------------------------------------------------------------------------7--
A|---------------------------------------------------------------------------------------------
E|---------------------------------------------------------------------------------------------

http://www.guitartabcreator.com
Guitar Tab Creator is intended to store guitar tab created through the tool. It currently does not support in-line text editing. Any text you place in here will be lost. If you need to comment on your tab, please use the "Tab Notes" section located below.