Sound will begin in 5 seconds

the down

Chords
01234567891011121314151617181920212223
E
B
G
D
A
E
B
0 1 2 3 4 5 6 7 8 9 10 11 12 13 14 15 16 17 18 19 20 21 22 23
Song Science #1: How Pros Use 6 Chords to Write Hit Songs
(/) Slide Up  (\) Slide Down  (h) Hammer On  (p) Pull Off  (b) Bend (r) Release (v) Vibrato

Stave 1:

D|--------------------------------------
A|--------6--------6--------6--------6--
F|-----0--------0--------0--------0-----
C|-----------0--------------------------
G|--6-----------------------------------
D|--------------------6--------5--------
G|--------------------------------------

Stave 2:

D|---------------------------
A|---------------------------
F|---------------------------
C|---------------------------
G|---------------------------
D|---------------------------
G|--------0--0--0--0--0--0b0b

Stave 3:

D|--------------------------------------------------------------------------------------------------
A|--------------------------------------------------------------------------------------------------
F|--------------------------------------------------------------------------------------------------
C|--------------------------------------------------------------------------------------------------
G|--------------------------------------------------------------------------------------------------
D|--------------------------------------------------------------------------------------------------
G|--6--6--6--6--6--6--6--6--5--5--5--5--5--5--5--5--1--1--1--1--1--1--1--1--0--0--0--0--0--0--0--0--

Stave 4:

D|--------------
A|--------------
F|--------------
C|--------------
G|--------------
D|--0--0--0--0--
G|--0--0--0--0--

Stave 5:

D|---------11---------11------------11--------11-----
A|------9----------9-------------9---------9---------
F|--11---------11---------11--9---------9---------9--
C|---------------------------------------------------
G|---------------------------------------------------
D|---------------------------------------------------
G|---------------------------------------------------

Stave 6:

D|--19--18----------
A|----------19--17--
F|------------------
C|------------------
G|------------------
D|------------------
G|------------------

Stave 7:

D|--19--18--------------21--19--18--14--12--19--18-----------------------------
A|----------19--17--21------------------------------19--17--21-----------------
F|-----------------------------------------------------------------------------
C|-----------------------------------------------------------------------------
G|-----------------------------------------------------------------------------
D|-----------------------------------------------------------------------------
G|--------------------------------------------------------------0--0--0--0--0--

Stave 8:

D|--19--18--------------21--19--18--
A|----------19--17--21--------------
F|----------------------------------
C|----------------------------------
G|----------------------------------
D|----------------------------------
G|----------------------------------

Stave 9:

D|--19--18--------------21--19--18--23--23--21--19--23--23--21--19--
A|----------19--17--21----------------------------------------------
F|------------------------------------------------------------------
C|------------------------------------------------------------------
G|------------------------------------------------------------------
D|------------------------------------------------------------------
G|------------------------------------------------------------------

http://www.guitartabcreator.com
Guitar Tab Creator is intended to store guitar tab created through the tool. It currently does not support in-line text editing. Any text you place in here will be lost. If you need to comment on your tab, please use the "Tab Notes" section located below.