Sound will begin in 5 seconds

Designated Driver

01234567891011121314151617181920212223
E
B
G
D
A
E
B
0 1 2 3 4 5 6 7 8 9 10 11 12 13 14 15 16 17 18 19 20 21 22 23
Song Science #1: How Pros Use 6 Chords to Write Hit Songs
(/) Slide Up  (\) Slide Down  (h) Hammer On  (p) Pull Off  (b) Bend (r) Release (v) Vibrato

Stave 1:

G|--------------------------------------------6--6--4--6--4----------------------------------7--------
D|-----7--4-----------4-----------7--4--------------------------7--4--------4-----7/9--9--9-----9-----
A|-----------5--4--7-----7--4-----------5--4--------------------------7--4-----5-------------------7--
E|--5--------------------------5-----------------------------5----------------------------------------

Stave 2:

G|---------------------------------6---------------------------------------------
D|--9--9--9/11--11--9--6--7--7--9-----9--9--9/11--11--9--6--7--6--7--9--7--------
A|-------------------------------------------------------------------------9--7--
E|-------------------------------------------------------------------------------

Stave 3:

G|---------------------------------------------------------------
D|------------------------------------------------4--------------
A|--------------------11--9--8--4--5--4--5--6--7-----7--5--4-----
E|--5--4--5--7--9--9------------------------------------------5--

Stave 4:

G|--------------------------------------------------14--11------------------------------
D|--------------------14--12--11------11--------------------14--11--14--11--12--11------
A|--7/12--12--12--12--------------14------12--7/12----------------------------------12--
E|--------------------------------------------------------------------------------------

http://www.guitartabcreator.com
Guitar Tab Creator is intended to store guitar tab created through the tool. It currently does not support in-line text editing. Any text you place in here will be lost. If you need to comment on your tab, please use the "Tab Notes" section located below.