Sound will begin in 5 seconds

Addicted 2 u guitar two

01234567891011121314151617181920212223
E
B
G
D
A
E
B
0 1 2 3 4 5 6 7 8 9 10 11 12 13 14 15 16 17 18 19 20 21 22 23
Song Science #1: How Pros Use 6 Chords to Write Hit Songs
(/) Slide Up  (\) Slide Down  (h) Hammer On  (p) Pull Off  (b) Bend (r) Release (v) Vibrato

Stave 1:

E|------------------------------------------------------------------------------------------------------
B|------------------------------------------------------------------------------------------------------
G|-------------------------------------------------------------------------------------7----------------
D|------------4p0--------------------7--4----------4------------4p0-----------------------4/9--7--------
A|-------5h7-------0--2--4--5-----5-----------5h7----------5h7-------0--2--4--5-----5-------------9--7--
D|--5h7------------------------5-----------4----------5h7------------------------5----------------------

Stave 2:

E|----------12----------12--------10--------10--------5-----------5-------------14------12------10--
B|------15----------15---------7---------7---------7-----7-----5-----5------10------10------10------
G|--14----------14----------7---------7---------7-----------7-----------11--------------------------
D|--------------------------------------------------------------------------------------------------
A|--------------------------------------------------------------------------------------------------
D|--------------------------------------------------------------------------------------------------

Stave 3:

E|------------------------5/10-------------------------------------------5/10----------------------
B|------------------2--3--------7-----7h8r7------------------------2--3--------7-----7h8r7---------
G|------------2--4-----------------7---------7---------------2--4-----------------7---------7h9r7--
D|-----0h2h4------------------------------------7-----0h2h4----------------------------------------
A|--5----------------------------------------------5-----------------------------------------------
D|-------------------------------------------------------------------------------------------------

Stave 4:

E|--------------10-------------------------------------5-----------------0-----
B|----------10------10------------7h10--8--7--------7-----7--------3--------3--
G|------11--------------11-----7-----------------6--------------2-----2--------
D|--12----------------------9-----------------7--------------5-----------------
A|-----------------------------------------------------------------------------
D|-----------------------------------------------------------------------------

Stave 5:

E|------10------------------10--------------10----------------------10--12/14--12--
B|----------14--12--10----------14--12----------14--12--10------10-----------------
G|--11------------------11--------------11------------------11---------------------
D|---------------------------------------------------------------------------------
A|---------------------------------------------------------------------------------
D|---------------------------------------------------------------------------------

http://www.guitartabcreator.com
Guitar Tab Creator is intended to store guitar tab created through the tool. It currently does not support in-line text editing. Any text you place in here will be lost. If you need to comment on your tab, please use the "Tab Notes" section located below.