Sound will begin in 5 seconds

Blitzkrieg

01234567891011121314151617181920212223
E
B
G
D
A
E
B
0 1 2 3 4 5 6 7 8 9 10 11 12 13 14 15 16 17 18 19 20 21 22 23
Song Science #1: How Pros Use 6 Chords to Write Hit Songs
(/) Slide Up  (\) Slide Down  (h) Hammer On  (p) Pull Off  (b) Bend (r) Release (v) Vibrato

Stave 1:

E|--------------------------------------------------------------
B|--------------------------------------------------------------
G|--------------------------------------2h3h4-------------3h4h5-
D|--------------1h2h3-------------2h3h4-------2h3h4-3h4h5-------
A|--------1h2h3-------1h2h3-2h3h4-------------------------------
E|-1/19\1-------------------------------------------------------

Stave 2:

E|-------------------------4h5h----6------6b8r6-6p4---4-------------
B|-3h4h5-------------4h5h6--------------------------6---6p4---4-----
G|-------3h4h5-4h5h6----------------------------------------6---6p4-
D|------------------------------------------------------------------
A|------------------------------------------------------------------
E|------------------------------------------------------------------

Stave 3:

E|----------------------------------------------------------------------
B|-------------------------------------------------12b15r12-------------
G|---4------------------------------------10h11h12----------------------
D|-6---6p4---4----------------------10h12-------------------------------
A|---------6---6p4------------10h11-------------------------------------
E|-----------------6/10-10h12-------------------------------------------

Stave 4:

E|---------------------------------------------------------------------
B|----12\1/10-------10-10-10-10-10-10-10-10-10-10-11-11-11-11-11-11-12-
G|---------------------------------------------------------------------
D|---------------------------------------------------------------------
A|---------------------------------------------------------------------
E|---------------------------------------------------------------------

Stave 5:

E|---------------------------
B|-12-12-12-12-12-12-12-12---
G|---------------------------
D|---------------------------
A|---------------------------
E|---------------------------

http://www.guitartabcreator.com
Guitar Tab Creator is intended to store guitar tab created through the tool. It currently does not support in-line text editing. Any text you place in here will be lost. If you need to comment on your tab, please use the "Tab Notes" section located below.