Like a Stone

Chords

01234567891011121314151617181920212223
E
B
G
D
A
E
B
0 1 2 3 4 5 6 7 8 9 10 11 12 13 14 15 16 17 18 19 20 21 22 23
(/) Slide Up  (\) Slide Down  (h) Hammer On  (p) Pull Off  (b) Bend (r) Release (v) Vibrato

Intro/Verse

E|-----------------------------------
B|-----------------------4-----3-----
G|--3-----5--------2-----------------
D|-----5-----3--0-----1-----1-----1--
A|-----------------------------------
E|-----------------------------------

Chorus

E|--3--6--1--3--
B|--3--6--1--3--
G|--3--7--2--3--
D|--5--8--3--5--
A|--5--8--3--5--
E|--3--6--1--3--

							http://www.guitartabcreator.com
Instruments
{"strings":[[[".",".",".",".",".",".",".",".",".",".","."],[".",".",".",".",".",".",".",4,".",3,"."],[3,".",5,".",".",2,".",".",".",".","."],[".",5,".",3,0,".",1,".",1,".",1],[".",".",".",".",".",".",".",".",".",".","."],[".",".",".",".",".",".",".",".",".",".","."]],[[3,6,1,3],[3,6,1,3],[3,7,2,3],[5,8,3,5],[5,8,3,5],[3,6,1,3]]],"numberofstrings":6,"notes":["E","B","G","D","A","E","B"],"capo":0,"stringnotes":["E4","B3","G3","D3","A2","E2"],"comments":["Intro/Verse","Chorus"],"timing":[["W","W","W","W","W","W","W","W","W","W","W"],["W","W","W","W"]],"timingvisible":false,"tabcounter":3,"stave":1,"totalstaves":2,"instrument":"6guitar","selectedtuning":"6_standard","version":"13"}

Member for

1 week 5 days
Submitted by jzarazua1 on Thu, 2020-05-21 13:35