Sound will begin in 5 seconds

Notes for smoke on water solo pt1

01234567891011121314151617181920212223
E
B
G
D
A
E
B
0 1 2 3 4 5 6 7 8 9 10 11 12 13 14 15 16 17 18 19 20 21 22 23
Song Science #1: How Pros Use 6 Chords to Write Hit Songs
(/) Slide Up  (\) Slide Down  (h) Hammer On  (p) Pull Off  (b) Bend (r) Release (v) Vibrato

Stave 1:

E|----------|-------------------|------------------|----------|--------------------------------
B|----------|-------------------|------------------|----------|--------------------------------
G|----------|--12v----17b19r17--|--15-------15b16--|----------|------12--15--15b17v----15--14--
D|--12--15--|-------------------|------17v---------|----12----|--15----------------------------
A|----------|-------------------|------------------|----------|--------------------------------
E|----------|-------------------|------------------|----------|--------------------------------

Stave 2:

E|---------------------------------------------|-------------------------|------
B|---------------------------------------------|-------------------------|------
G|--12--14----12--14--12--10----12--10--8--10--|--10--12--11--12v--------|--12--
D|---------------------------------------------|-------------------------|------
A|---------------------------------------------|-------------------------|------
E|---------------------------------------------|-------------------------|------

Stave 3:

E|--------------------------------|------------8-------------------------------------------------------
B|--11--13--11--13----13------11--|---------8-----11--10--8--------------------------------------------
G|------------------------12------|--10b12-------------------11--10--8--8------10--10--8--7------------
D|--------------------------------|----------------------------------------10----------------10--8--7--
A|--------------------------------|--------------------------------------------------------------------
E|--------------------------------|--------------------------------------------------------------------

Stave 4:

E|-----------------------------|------------|------------|-------------------|----------------------
B|-----------------------------|------------|------------|-------------------|----------------------
G|-------------------8--7------|------------|------------|--12v----17b19r17--|--15-------15b16------
D|------8--7--10--8--------10--|--8b10r8----|--12----15--|-------------------|------17v---------12--
A|--10-------------------------|------------|------------|-------------------|----------------------
E|-----------------------------|------------|------------|-------------------|----------------------

Stave 5:

E|--------------------------------|---------------------------------------------|-------------------------
B|--------------------------------|---------------------------------------------|-------------------------
G|------12--15--15b17v----15--14--|--12--14----12--14--12--10----12--10--8--10--|--10--12--11--12v----12--
D|--15----------------------------|---------------------------------------------|-------------------------
A|--------------------------------|---------------------------------------------|-------------------------
E|--------------------------------|---------------------------------------------|-------------------------

http://www.guitartabcreator.com
Guitar Tab Creator is intended to store guitar tab created through the tool. It currently does not support in-line text editing. Any text you place in here will be lost. If you need to comment on your tab, please use the "Tab Notes" section located below.