Sound will begin in 5 seconds

Unknown Spells

01234567891011121314151617181920212223
E
B
G
D
A
E
B
0 1 2 3 4 5 6 7 8 9 10 11 12 13 14 15 16 17 18 19 20 21 22 23
Song Science #1: How Pros Use 6 Chords to Write Hit Songs
(/) Slide Up  (\) Slide Down  (h) Hammer On  (p) Pull Off  (b) Bend (r) Release (v) Vibrato

Stave 1:

Gb|--------------|------------------------7----------------------------
Db|-----6--------|---------------9-----9-----9-----9-------------------
Ab|-----------6--|-----9------9-----9-----------9-----9------9---------
Eb|--4-----4-----|--7-----10-----------------------------10-----10--7--
Bb|--------------|-----------------------------------------------------

Stave 2:

Gb|----------------------------
Db|----------------------------
Ab|--------14------------------
Eb|--7/14------11--11--11--11--
Bb|----------------------------

Stave 3:

Gb|--------------------------------------------------------------------------------------|--------------
Db|------------9---------------9---------------------13----------------------13----------|--13----------
Ab|---------9-----9---------9-----9--------------13------13--------------13------13------|------13------
Eb|--7--10-----------10--7-----------10--11--14--------------14--11--14--------------14--|----------14--
Bb|--------------------------------------------------------------------------------------|--------------

Stave 4:

Gb|--------
Db|--------
Ab|--------
Eb|--5--8--
Bb|--------

Stave 5:

Gb|-------------------------------|----------------------------------
Db|------------10-----10----------|--------------15------15----------
Ab|--------10-------------10------|----------15--------------15------
Eb|--7--8----------7----------11--|--12--13----------13----------16--
Bb|-------------------------------|----------------------------------

Stave 6:

Gb|--------------
Db|--------------
Ab|--9-----------
Eb|-----7--8-----
Bb|-----------6--

Stave 7:

Gb|--------
Db|--------
Ab|--------
Eb|--7-----
Bb|-----6--

Stave 8:

Gb|--------------|----------------
Db|--------------|----------------
Ab|--9-----------|--10--------11--
Eb|-----7-----8--|------8--9------
Bb|--------6-----|----------------

Stave 9:

Gb|-----------5-----------5--------------5-----12--------------
Db|--------5-----5-----5-----5--------5-----5------13----------
Ab|-----7-----------7--------------7-------------------15------
Eb|--4--------------------------4--------------------------15--
Bb|------------------------------------------------------------

Stave 10:

Gb|-----------------------
Db|-----------------------
Ab|--3--2--10--12--10--9--
Eb|-----------------------
Bb|-----------------------

http://www.guitartabcreator.com
Guitar Tab Creator is intended to store guitar tab created through the tool. It currently does not support in-line text editing. Any text you place in here will be lost. If you need to comment on your tab, please use the "Tab Notes" section located below.