Sound will begin in 5 seconds

Battles

01234567891011121314151617181920212223
E
B
G
D
A
E
B
0 1 2 3 4 5 6 7 8 9 10 11 12 13 14 15 16 17 18 19 20 21 22 23
Song Science #1: How Pros Use 6 Chords to Write Hit Songs
(/) Slide Up  (\) Slide Down  (h) Hammer On  (p) Pull Off  (b) Bend (r) Release (v) Vibrato

Stave 1:

Gb|-----------------|-----------------|--
Db|-----------------|-----------------|--
Ab|-----4-----4--7--|-----------5--8--|--
Eb|--5-----5--------|--7--6--7--------|--
Bb|-----------------|-----------------|--

Stave 2:

Gb|---------------------------------------------------------------------------
Db|---------------------------------------------------------------------------
Ab|--9-----9-----10-----9-----9-----10-----9-----9-----10-----9-----9-----10--
Eb|-----7-----7------8-----7-----7------8-----7-----7------8-----7-----7------
Bb|---------------------------------------------------------------------------

Stave 3:

Gb|--------------------------------------------------------------------------
Db|--------------------------------------------------------------------------
Ab|--------------------------------------------------------------------------
Eb|--2-----2-----3-----2-----2-----3-----2-----2-----3-----2-----2-----3-----
Bb|-----0-----0-----1-----0-----0-----1-----0-----0-----1-----0-----0-----1--

Stave 4:

Gb|--------|-----------------------|--------|--
Db|--------|-----------------------|--------|--
Ab|--------|-----------------------|-----6--|--
Eb|--5--4--|-----------7-----------|--7-----|--
Bb|--------|-----------------------|--------|--

http://www.guitartabcreator.com
Guitar Tab Creator is intended to store guitar tab created through the tool. It currently does not support in-line text editing. Any text you place in here will be lost. If you need to comment on your tab, please use the "Tab Notes" section located below.