Sound will begin in 5 seconds

Proxy

01234567891011121314151617181920212223
E
B
G
D
A
E
B
0 1 2 3 4 5 6 7 8 9 10 11 12 13 14 15 16 17 18 19 20 21 22 23
Song Science #1: How Pros Use 6 Chords to Write Hit Songs
(/) Slide Up  (\) Slide Down  (h) Hammer On  (p) Pull Off  (b) Bend (r) Release (v) Vibrato

Stave 1:

E|--------------6-----------3--1-----------0--------------------------------------------------
B|--3--4--5--6--------------------------------4--3--------3--4--5--6--------------2-----------
G|-----------------------3--------3-----------------------------------3--------3-----3--0-----
D|--------------------------------------------------------------------------------------------
A|--------------------------------------------------------------------------------------------
E|--------------------------------------------------------------------------------------------

Stave 2:

E|--------------1-----------3--1-----------------3--------6--------------------0-----------------
B|-----1--1--1-----2--------------2--------------------6-----5--4--------------------------2-----
G|-----------------------------------3--------0-----------------------------3-----------3-----3--
D|-----------------------------------------------------------------------------------------------
A|-----------------------------------------------------------------------------------------------
E|-----------------------------------------------------------------------------------------------

Stave 3:

E|--0--1--0--1--0--1--0--------------------------------3-----1--------------1-----------
B|-----------------------4--3-----------1-----------------3--------4--3--------4--2-----
G|-----------------------------3--0--3-----3--3-----3--------------------3-----------3--
D|--------------------------------------------------------------------------------------
A|--------------------------------------------------------------------------------------
E|--------------------------------------------------------------------------------------

Stave 4:

E|-----3--------2--1-----------------------------1--3--4-----3--2--3-----8-----9--6-----------
B|--1-----1--0--------------4--3-----------3--4--------------------------------------6--------
G|-----------------------3--------0-----3-----------------------------------------------8--7--
D|--------------------------------------------------------------------------------------------
A|--------------------------------------------------------------------------------------------
E|--------------------------------------------------------------------------------------------

Stave 5:

E|--6-----------8---------------------------------6--------5--------------1--------------------
B|-----6--9--------6--------------------10--8--6-----6--5--------9-----------1--3--4--1--------
G|--------------------8--------5--6---------------------------8-----7--------------------2--3--
D|--------------------------8------------------------------------------------------------------
A|---------------------------------------------------------------------------------------------
E|---------------------------------------------------------------------------------------------

Stave 6:

E|--9--10------------------------------8--9------------------------10-----------------------
B|---------10--11----------------------------10--11--------------------11--8--------13--11--
G|-----------------9--10------7----------------------9--10--------------------9--8----------
D|------------------------11-----8--------------------------11------------------------------
A|------------------------------------------------------------------------------------------
E|------------------------------------------------------------------------------------------

Stave 7:

E|------10--8------------------------------------------------------------------------------------------
B|-------------11--8---------------8--9--10---------------------9--------------9--8--------------------
G|--10----------------10--8--7---------------11------11--11--------10------10-----------9------10--12--
D|-----------------------------------------------12--------------------11------------------10----------
A|-----------------------------------------------------------------------------------------------------
E|-----------------------------------------------------------------------------------------------------

Stave 8:

E|-----------------------------------------------------------6------------------
B|--14--13-----10------11--13---------11------------------------8---------------
G|-----------------10-------------10------10--9--8-----7--8--------8--7--10-----
D|---------------------------------------------------------------------------8--
A|------------------------------------------------------------------------------
E|------------------------------------------------------------------------------

Stave 9:

E|------------------------------------------------------------------------------------------------------------
B|--------------------------------------------------------11--------------------------10--11--8-----9--10--7--
G|--8--7--10-----------------------6--7--10-----8--7--10------------8--7--------------------------------------
D|------------8-----8--8--8--8---------------8-------------------8-----------8--8-----------------------------
A|------------------------------------------------------------------------------------------------------------
E|------------------------------------------------------------------------------------------------------------

Stave 10:

E|---------------------------------------------------------------------
B|--------------9--11--13------------14----------13--11----------------
G|------10--12-------------10------------13--14----------13--12-----6--
D|--10-----------------------------------------------------------8-----
A|---------------------------------------------------------------------
E|---------------------------------------------------------------------

Stave 11:

E|------------------------------------------------------------------
B|--------6--------10--8--6--------------8--6-----------------------
G|--6--7-----7--6------------5--3--4-----------8--7-----8--7--------
D|---------------------------------------------------8--------8--8--
A|------------------------------------------------------------------
E|------------------------------------------------------------------

Stave 12:

E|--
B|--
G|--
D|--
A|--
E|--

http://www.guitartabcreator.com
Guitar Tab Creator is intended to store guitar tab created through the tool. It currently does not support in-line text editing. Any text you place in here will be lost. If you need to comment on your tab, please use the "Tab Notes" section located below.