Sound will begin in 5 seconds

E minor modes

01234567891011121314151617181920212223
E
B
G
D
A
E
B
0 1 2 3 4 5 6 7 8 9 10 11 12 13 14 15 16 17 18 19 20 21 22 23
Song Science #1: How Pros Use 6 Chords to Write Hit Songs
(/) Slide Up  (\) Slide Down  (h) Hammer On  (p) Pull Off  (b) Bend (r) Release (v) Vibrato

Stave 1:

E|-----------------------------------------------0--
B|--------------------------------------0--1--3-----
G|-----------------------------0--2--4--------------
D|--------------------0--2--4-----------------------
A|-----------0--2--3--------------------------------
E|--0--2--3-----------------------------------------

Stave 2:

E|-----------------------------------------------2--
B|--------------------------------------1--3--5-----
G|-----------------------------2--4--5--------------
D|--------------------2--4--5-----------------------
A|-----------2--3--5--------------------------------
E|--2--3--5-----------------------------------------

Stave 3:

E|-----------------------------------------------3--
B|--------------------------------------3--5--7-----
G|-----------------------------4--5--7--------------
D|--------------------4--5--7-----------------------
A|-----------3--5--7--------------------------------
E|--3--5--7-----------------------------------------

Stave 4:

E|-----------------------------------------------5--
B|--------------------------------------5--7--8-----
G|-----------------------------5--7--9--------------
D|--------------------5--7--9-----------------------
A|-----------5--7--9--------------------------------
E|--5--7--8-----------------------------------------

Stave 5:

E|-------------------------------------------------------7--
B|---------------------------------------------7--8--10-----
G|--------------------------------7--9-----11---------------
D|----------------------7--9--10----------------------------
A|------------7--9--10--------------------------------------
E|--7--8--10------------------------------------------------

Stave 6:

E|---------------------------------------------------------8--
B|----------------------------------------------8--10--12-----
G|-----------------------------------9--10--12----------------
D|------------------------9--10--12---------------------------
A|-------------8--10--12--------------------------------------
E|--8--10--12-------------------------------------------------

Stave 7:

E|--------------------------------------------------------------10--
B|--------------------------------------------------10--12--13------
G|--------------------------------------11--12--14------------------
D|--------------------------10--12--14------------------------------
A|--------------10--12--14------------------------------------------
E|--10--12--14------------------------------------------------------

Stave 8:

E|--------------------------------------------------------------12--
B|--------------------------------------------------12--13--15------
G|--------------------------------------12--14--16------------------
D|--------------------------12--14--16------------------------------
A|--------------12--14--15------------------------------------------
E|--12--14--15------------------------------------------------------

http://www.guitartabcreator.com
Guitar Tab Creator is intended to store guitar tab created through the tool. It currently does not support in-line text editing. Any text you place in here will be lost. If you need to comment on your tab, please use the "Tab Notes" section located below.