Chords learning.

01234567891011121314151617181920212223
E
B
G
D
A
E
B
0 1 2 3 4 5 6 7 8 9 10 11 12 13 14 15 16 17 18 19 20 21 22 23
(/) Slide Up  (\) Slide Down  (h) Hammer On  (p) Pull Off  (b) Bend (r) Release (v) Vibrato

Stave 1:

E|-----------5/7-----------7/8-----------8--10/12-------------10-----------5--7--------7--8--------8--10--15--13--15--13--12------
B|----------------------------------------------------------------------------------------------------------------------------13--
G|--------5-------------7-------------9-------------------12------------5-----------7-----------9---------------------------------
D|-----3-------------5-------------7------------------10-------------3-----------5-----------7------------------------------------
A|--------------------------------------------------------------------------------------------------------------------------------
E|--------------------------------------------------------------------------------------------------------------------------------

Stave 2:

E|----------13--15-----------------------------10--12----------------
B|-----------------------------10--12-------------------------8--10--
G|------14---------------------------------12------------------------
D|--12---------------------12----------10-----------------10---------
A|---------------------10------------------------------8-------------
E|-------------------------------------------------------------------

Stave 3:

E|---------8--10----------------------------------
B|----------------------9/12--------10-----10-----
G|-----10---------------------------9------9------
D|--9----------------9--------------10-----11-----
A|----------------7-----------------0------0------
E|------------------------------------------------

Stave 4:

E|----------13--15--------------------------10--12-----------------------8--10------------------------------------------------------------
B|--------------------------10--12-------------------------8--10----------------------9/12-----9--6--5--------------------10--------------
G|------14------------------------------12---------------------------10---------------------------------7/8\7\5-----------9-----------14--
D|--12------------------12----------10-----------------10---------9----------------9-----------------------------7--6--9--11--11------11--
A|------------------10------------------------------8---------------------------7-----------------------------------------0-------12--12--
E|----------------------------------------------------------------------------------------------------------------------------------------

							http://www.guitartabcreator.com
Chords

Tab Notes
Chords: 1 Line for each stave: 1. F-G-Am-C-F-G-Am-C 2. Dm-G-C-F 3. Bdim-E-Am-A 4. Dm-G-C-F-Bdim-E-A
Instruments
{"strings":[[["_",".",".",5,"/",7,"_",".",".",7,"/",8,"_",".",".",8,10,"/",12,"_",".",".",10,"_",".",".",5,7,".",".",7,8,".",".",8,10,15,13,15,13,12,"."],["_",".",".",".",".",".","_",".",".",".",".",".","_",".",".",".",".",".",".","_",".",".",".","_",".",".",".",".",".",".",".",".",".",".",".",".",".",".",".",".",".",13],["_",".",5,".",".",".","_",".",7,".",".",".","_",".",9,".",".",".",".","_",".",12,".","_",".",5,".",".",".",7,".",".",".",9,".",".",".",".",".",".",".","."],["_",3,".",".",".",".","_",5,".",".",".",".","_",7,".",".",".",".",".","_",10,".",".","_",3,".",".",".",5,".",".",".",7,".",".",".",".",".",".",".",".","."],["_",".",".",".",".",".","_",".",".",".",".",".","_",".",".",".",".",".",".","_",".",".",".","_",".",".",".",".",".",".",".",".",".",".",".",".",".",".",".",".",".","."],["_",".",".",".",".",".","_",".",".",".",".",".","_",".",".",".",".",".",".","_",".",".",".","_",".",".",".",".",".",".",".",".",".",".",".",".",".",".",".",".",".","."]],[[".",".",13,15,"_",".",".",".",".",".",".",10,12,".",".",".","."],[".",".",".",".","_",".",".",10,12,".",".",".",".",".",".",8,10],[".",14,".",".","_",".",".",".",".",".",12,".",".",".",".",".","."],[12,".",".",".","_",".",12,".",".",10,".",".",".",".",10,".","."],[".",".",".",".","_",10,".",".",".",".",".",".",".",8,".",".","."],[".",".",".",".","_",".",".",".",".",".",".",".",".",".",".",".","."]],[[".",".",8,10,".",".",".",".",".","_","_",".","_",".","_"],[".",".",".",".",".",".",9,"/",12,"_","_",10,"_",10,"_"],[".",10,".",".",".",".",".",".",".","_","_",9,"_",9,"_"],[9,".",".",".",".",9,".",".",".","_","_",10,"_",11,"_"],[".",".",".",".",7,".",".",".",".","_","_",0,"_",0,"_"],[".",".",".",".",".",".",".",".",".","_","_",".","_",".","_"]],[[".",".",13,15,".",".",".",".",".",".",10,12,".",".",".",".",".",".",8,10,".",".",".",".",".","_",".",".",".",".",".",".",".",".",".",".",".",".",".",".",".",".","."],[".",".",".",".",".",".",10,12,".",".",".",".",".",".",8,10,".",".",".",".",".",".",9,"/",12,"_",9,6,5,".",".",".",".",".",".",".",".",".",".",10,".",".","."],[".",14,".",".",".",".",".",".",".",12,".",".",".",".",".",".",".",10,".",".",".",".",".",".",".","_",".",".",".",7,"/",8,"\\",7,"\\",5,".",".",".",9,".",".",14],[12,".",".",".",".",12,".",".",10,".",".",".",".",10,".",".",9,".",".",".",".",9,".",".",".","_",".",".",".",".",".",".",".",".",".",".",7,6,9,11,11,".",11],[".",".",".",".",10,".",".",".",".",".",".",".",8,".",".",".",".",".",".",".",7,".",".",".",".","_",".",".",".",".",".",".",".",".",".",".",".",".",".",0,".",12,12],[".",".",".",".",".",".",".",".",".",".",".",".",".",".",".",".",".",".",".",".",".",".",".",".",".","_",".",".",".",".",".",".",".",".",".",".",".",".",".",".",".",".","."]]],"numberofstrings":6,"notes":["E","B","G","D","A","E","B"],"capo":0,"stringnotes":["E4","B3","G3","D3","A2","E2"],"comments":["Stave 1:","Stave 2:","Stave 3:","Stave 4:"],"timing":[["W","W","W",null,"W","W","W","W","W","W",null,"W","W","W","W","W","W",null,"W","W","W","W","W","W","W","W","W","W","W","W","W","W","W","W","W","W","W","W","W","W","W","W"],["W","W","W","W","W","W","W","W","W","W","W","W","W","W","W","W","W"],["W","W","W","W","W","W","W",null,"W","W","W","W","W","W","W"],["W","W","W","W","W","W","W","W","W","W","W","W","W","W","W","W","W","W","W","W","W","W","W",null,"W","W","W","W","W","W",null,"W",null,"W",null,"W","W","W","W","W","W","W","W"]],"timingvisible":false,"tabcounter":42,"stave":3,"totalstaves":4,"instrument":"6guitar","selectedtuning":"6_standard","version":"13"}

Member for

6 months 2 weeks
About Me
I play electric guitar since Oktober 2021. Born 2001.
Submitted by JV3 on Wed, 2022-05-18 17:37