Sound will begin in 5 seconds

E Harmonic Minor finger exercise

01234567891011121314151617181920212223
E
B
G
D
A
E
B
0 1 2 3 4 5 6 7 8 9 10 11 12 13 14 15 16 17 18 19 20 21 22 23
Song Science #1: How Pros Use 6 Chords to Write Hit Songs
(/) Slide Up  (\) Slide Down  (h) Hammer On  (p) Pull Off  (b) Bend (r) Release (v) Vibrato

Stave 1:

E|--------------------------------------------------------------------------------
B|-----------------------------------------------------------------5--7-----5--7--
G|-----------------------------------------------4--5-----4--5--8--------8--------
D|-----------------------------4--5-----4--5--7--------7--------------------------
A|-----------3--6-----3--6--7--------7--------------------------------------------
E|--3--5--7--------7--------------------------------------------------------------

Stave 2:

E|------------------------------------------------------------------------------------------
B|------------------------------------------------------------------------8--10------8--10--
G|----------------------------------------------------8--9------8--9--11---------11---------
D|--------------------------------7--9------7--9--10--------10------------------------------
A|------------7--9------7--9--10--------10--------------------------------------------------
E|--7--8--11--------11----------------------------------------------------------------------

Stave 3:

E|------------------------------------------------------------------
B|--12--8-----8-----------------------------------------------------
G|---------9-----9-----9--------------------------------------------
D|------------------9-----9--5--9--5-----5--------------------------
A|------------------------------------7-----7-----7-----------------
E|---------------------------------------------7-----7--3--7--3--0--

Stave 4:

E|-----------------------------------------------------------------
B|--8--5--4--7--4-----4--------------------------------------------
G|-----------------5-----5-----5-----------------------------------
D|--------------------------7-----7--4--7--4-----4-----------------
A|--------------------------------------------6-----6--3--6--3-----
E|--------------------------------------------------------------5--

http://www.guitartabcreator.com
Guitar Tab Creator is intended to store guitar tab created through the tool. It currently does not support in-line text editing. Any text you place in here will be lost. If you need to comment on your tab, please use the "Tab Notes" section located below.