High Hopes

01234567891011121314151617181920212223
E
B
G
D
A
E
B
0 1 2 3 4 5 6 7 8 9 10 11 12 13 14 15 16 17 18 19 20 21 22 23
(/) Slide Up  (\) Slide Down  (h) Hammer On  (p) Pull Off  (b) Bend (r) Release (v) Vibrato

Stave 1:

D|--------------------------------------------------------------------------
A|--------------------------------------------------------------------------
F|--------------------------------------------------------------------------
C|--------------------------------------------------------------------------
G|--10--9--7--9--x--7--x--6-----6\10-----9--x--10--x--12--7--9--x--7--x--6--
D|--------------------------------------------------------------------------

Stave 2:

D|--------------------------------------------------------------------------------------------------------------
A|--------------------------------------------------------------------------------------------------------------
F|--------------------------------------------------------------------------------------------------------------
C|-------------------------------------------------------------11--13--14-----14-----13--14--13--11-------------
G|--6\11--11--9--x--11--x--13-----11--x--13--x--14-----13--14----------------------------------------14--10\11--
D|--------------------------------------------------------------------------------------------------------------

Stave 3:

D|-----------------------------------------------------------------------------------------
A|-----------------------------------------------------------------------------------------
F|-----------------------------------------------------------------------------------------
C|-----------------------------------------------------------------11--13-----13\14\16/14--
G|--10\11-----9--x--11--x--13-------------13--14-----13--14--14/16\11----------------------
D|--------------------------------11--11---------------------------------------------------

							http://www.guitartabcreator.com
Chords

Instruments
{"strings":[[[".",".",".",".",".",".","_","_","_","_","_","_","_","_","_","_","_",".","_","_","_","_","_","_"],[".",".",".",".",".",".","_","_","_","_","_","_","_","_","_","_","_",".","_","_","_","_","_","_"],[".",".",".",".",".",".","_","_","_","_","_","_","_","_","_","_","_",".","_","_","_","_","_","_"],[".",".",".",".",".",".","_","_","_","_","_","_","_","_","_","_","_",".","_","_","_","_","_","_"],[10,9,7,9,"x",7,"x",6,"_",6,"\\",10,"_",9,"x",10,"x",12,7,9,"x",7,"x",6],[".",".",".",".",".",".","_","_","_","_","_","_","_","_","_","_","_",".","_","_","_","_","_","_"]],[[".","_","_","_","_","_","_","_","_","_","_","_","_","_","_","_","_","_","_","_","_","_","_","_","_","_","_","_",".","_","_","_"],[".","_","_","_","_","_","_","_","_","_","_","_","_","_","_","_","_","_","_","_","_","_","_","_","_","_","_","_",".","_","_","_"],[".","_","_","_","_","_","_","_","_","_","_","_","_","_","_","_","_","_","_","_","_","_","_","_","_","_","_","_",".","_","_","_"],[".","_","_","_","_","_","_","_","_","_","_","_","_","_","_","_","_","_",11,13,14,"_",14,"_",13,14,13,11,".","_","_","_"],[6,"\\",11,11,9,"x",11,"x",13,"_",11,"x",13,"x",14,"_",13,14,"_","_","_","_","_","_","_","_","_","_",14,10,"\\",11],[".","_","_","_","_","_","_","_","_","_","_","_","_","_","_","_","_","_","_","_","_","_","_","_","_","_","_","_",".","_","_","_"]],[[".","_","_","_","_","_","_","_","_","_","_","_","_","_","_","_","_","_","_","_","_","_","_","_","_","_","_","_","_","_","_"],[".","_","_","_","_","_","_","_","_","_","_","_","_","_","_","_","_","_","_","_","_","_","_","_","_","_","_","_","_","_","_"],[".","_","_","_","_","_","_","_","_","_","_","_","_","_","_","_","_","_","_","_","_","_","_","_","_","_","_","_","_","_","_"],[".","_","_","_","_","_","_","_","_","_","_","_","_","_","_","_","_","_","_","_","_",11,13,"_",13,"\\",14,"\\",16,"/",14],[10,"\\",11,"_",9,"x",11,"x",13,"_","_","_",13,14,"_",13,14,14,"/",16,"\\",11,"_","_","_","_","_","_","_","_","_"],[".","_","_","_","_","_","_","_","_","_",11,11,"_","_","_","_","_","_","_","_","_","_","_","_","_","_","_","_","_","_","_"]]],"numberofstrings":6,"notes":["D","A","F","C","G","D"],"capo":0,"stringnotes":["D3","A2","F2","C2","G1","D1"],"comments":["Stave 1:","Stave 2:","Stave 3:","Stave 4:"],"timing":[[null,null,null,null,null,null,null,null,null,null,null,null,null,null,null,null,null,"W","W","W","W","W","W","W","W"],[],["W","W","W","W","W","W","W","W","W","W","W","W","W","W","W","W","W","W","W","W","W","W","W","W","W","W","W","W","W","W","W","W"],[]],"timingvisible":false,"tabcounter":31,"stave":2,"totalstaves":3,"instrument":"6guitar","selectedtuning":"Full Step Down","version":"13"}

Member for

3 months 3 weeks
Submitted by justdurr on Mon, 2021-08-02 00:02