Sound will begin in 5 seconds

Bass Tab

Chords
01234567891011121314151617181920212223
E
B
G
D
A
E
B
0 1 2 3 4 5 6 7 8 9 10 11 12 13 14 15 16 17 18 19 20 21 22 23
Song Science #1: How Pros Use 6 Chords to Write Hit Songs
(/) Slide Up  (\) Slide Down  (h) Hammer On  (p) Pull Off  (b) Bend (r) Release (v) Vibrato

Stave 1:

G|------12----------11----------9------------------
D|--14------14--12------12--10-----10--10--12------
A|---------------------------------------------10--
D|-------------------------------------------------

Stave 2:

G|------12--14--12----------11--12--11----------9--10--9----------------------
D|--14--------------14--12--------------12--10------------10--10--12----------
A|--------------------------------------------------------------------12--10--
D|----------------------------------------------------------------------------

Stave 3:

G|------12--14--15--14--12------11--12--14--12--11------9--10--12--10--9--9---11----------
D|--14----------------------12----------------------10--------------------10--12--12--10--
A|--------------------------------------------------------------------------------12--10--
D|----------------------------------------------------------------------------------------

Stave 4:

G|--12--11--9---------8--9--11--8--8--
D|--14--12--10-----9------------------
A|--14--12--10--9---------------------
D|------------------------------------

Stave 5:

G|-------------------------------------------------------------------------------------------------------------
D|-------------------------------------------------------------------------------------------------------------
A|-------------------------------------------------------------------------------------------------------------
D|--14--14--14--14--14--14--14--14--12--12--12--12--12--12--12--12--10--10--10--10--10--10--10--10--9--10--12--

Stave 6:

G|-------------------------------------------------------------------------------------
D|-------------------------------------------------------------------------------------
A|-------------------------------------------------------------------------------------
D|--14--14--14--14--14--16--12--12--12--12--12--14--10--10--10--10--10--12--9--10--12--

Stave 7:

G|------------------------------------------------------------------------------------------------------
D|------------------------------------------------------------------------------------------------------
A|------------------------------------------------------------------------------------------------------
D|--14--14--14--14--14--16--16--16--16--16--16--17--17--17--17--17--19--12--12--12--12--11--11--11--11--

Stave 8:

G|------------------------------------------------------------------------------------------------------------------------------
D|------------------------------------------------------------------------------------------------------------------------------
A|------------------------------------------------------------------------------------------------------------------------------
D|--14--14--14--14--14--14--14--14--12--12--12--12--12--12--12--12--11--11--11--11--11--11--11--11--9--9--9--9--11--9--7--9--7--

Stave 9:

G|-----2--4--2-----2--4--2-----2--4-----------7--
D|-----------------------------------4--2--0-----
A|-----------------------------------------------
D|--0-----------0-----------0--------------------

Stave 10:

G|-----7-----2--------7-----2--------7-----2--4--2--------------2--4--2--
D|--7-----0--------7-----0-----0--7-----0-----------4--2--4--0-----------
A|-----------------------------------------------------------------------
D|--------------0--------------------------------------------------------

Stave 11:

G|-----7-----2--------7-----2--------7-----2--4--2--------------4--7--5--4--5--4--2--
D|--7-----0--------7-----0-----0--7-----0-----------4--2--4--0-----------------------
A|-----------------------------------------------------------------------------------
D|--------------0--------------------------------------------------------------------

Stave 12:

G|-----7-----2--------7-----1--2-----7-----2--4--2-----------7--11--9--11--9--7--
D|--7-----0--------7-----0--------7-----0-----------4--2--0----------------------
A|-------------------------------------------------------------------------------
D|--------------0----------------------------------------------------------------

Stave 13:

G|-----7-----2--------7-----1--2-----7-----2--4--2--------------11--14--11--12--11--
D|--7-----0--------7-----0--------7-----0-----------4--2--4--0----------------------
A|----------------------------------------------------------------------------------
D|--------------0-------------------------------------------------------------------

Stave 14:

G|--11--14--11--12--11------14-----11--12--11------14-----
D|----------------------12------0--------------12------0--
A|--------------------------------------------------------
D|--------------------------------------------------------

Stave 15:

G|--11--14--14--12--12--11--
D|--12--12--11--11--9---9---
A|--12--12--12--12--9---9---
D|--------------------------

http://www.guitartabcreator.com
Guitar Tab Creator is intended to store guitar tab created through the tool. It currently does not support in-line text editing. Any text you place in here will be lost. If you need to comment on your tab, please use the "Tab Notes" section located below.