Sound will begin in 5 seconds

Life as a Dream

Chords
01234567891011121314151617181920212223
E
B
G
D
A
E
B
0 1 2 3 4 5 6 7 8 9 10 11 12 13 14 15 16 17 18 19 20 21 22 23
Song Science #1: How Pros Use 6 Chords to Write Hit Songs
(/) Slide Up  (\) Slide Down  (h) Hammer On  (p) Pull Off  (b) Bend (r) Release (v) Vibrato

Stave 1:

Db|---0---------0-------0---------0---2p0-|---0---------0---------0-----0-|-|-
Ab|-----0---------0-------0-----0---0-----|-----0---------0---------0---0-|-|-
F |-----------1---------------1-----------|-----------1---------1-----1-1-|-|-
Db|-0-----------------2-------------------|-0-----------------2-----------|-|-
Ab|---------2-----------------------------|---------2---------------------|-|-
Db|---------------------------------------|-------------------------------|-|-

Stave 2:

Db|----0--------0---------0---------0---2-0-|---0--------0--------0---------0---2-0-|-
Ab|------0--------0---------0-----0---0-----|-----0--------0--------0-----0---0-----|-
F |-----------1-----1---1-----1-1-----------|----------1--------1-----1-1-----------|-
Db|--0----------------2---------------------|-0---------------2---------------------|-
Ab|---------2-------------------------------|--------2------------------------------|-
Db|-----------------------------------------|---------------------------------------|-

Stave 3:

Db|----0--------0---------0---------0---2-0-|---0---------0---------0-----0-|-|-
Ab|------0--------0---------0-----0---0-----|-----0---------0---------0---0-|-|-
F |--0--------1-----1---1-----1-1-----------|-----------1-----1---1-----1-1-|-|-
Db|-------------------2---------------------|-0-----------------2-----------|-|-
Ab|---------2-------------------------------|-------0h2---------------------|-|-
Db|-----------------------------------------|-------------------------------|-|-

Stave 4:

Db|-------------------------------------------------|-|-x-
Ab|-------0-----------0-----------0-----------0-----|-|-0-
F |-----0---0-------5---5-------1---1-------5---5---|-|-5-
Db|---2-------0---0-------0---2-------2---0-------0-|-|-0-
Ab|-------------------------------------------------|-|-x-
Db|-0-----------5-----------2-----------5-----------|-|-5-

Stave 5:

Db|-----0----------0---------0--------0---2p0-|-----0--------0---------0---------0---2p0-|-
Ab|-------0----------0---------0----0---0-----|-------0--------0---------0-----0---0-----|-
F |---0----------1-----1---1------1-----------|---0--------1-----1---1-----1-1-----------|-
Db|-0----------0---------2--------------------|-0------------------2---------------------|-
Ab|----------2--------------------------------|----------2-------------------------------|-
Db|-------------------------------------------|------------------------------------------|-

Stave 6:

Db|-----0---------0---------0---------0---2p0-|-----0-----------0---------0---------0---2p0-|-|-
Ab|-------0---------0---------0-----0---0-----|-------0-----------0---------0-----0---0-----|-|-
F |---0-----0---1-----1---1-----1-1-----------|---0-----0-----1-----1---1-----1-1-----------|-|-
Db|-0-------------------2---------------------|-0-----------0---------2---------------------|-|-
Ab|-----------2-------------------------------|-----------2---------------------------------|-|-
Db|-------------------------------------------|---------------------------------------------|-|-

Stave 7:

Db|-----0-----0-----0-----0-----0-----0-----0---0---|-|-----0---0---|-|-----0-0-|-|-
Ab|---------------------------------------4---4---4-|-|---0---4---4-|-|-------0-|-|-
F |---0-----0-----0-----0-----1-----1---------------|-|-------------|-|---0---1-|-|-
Db|-0-----0-----5-----5-----2-----2-----5-----------|-|-5-----------|-|-5-----2-|-|-
Ab|-------------------------------------------------|-|-------------|-|---------|-|-
Db|-------------------------------------------------|-|-------------|-|---------|-|-

Stave 8:

Db|--------------------------------------------------------------|-
Ab|-------5------------0-----------5-----------0-----------0-----|-
F |-----5---5--------0---0-------5---5-------2---2-------5---5---|-
Db|---0-------0----2-------2---0-------0---0-------0---0-------0-|-
Ab|--------------------------------------------------------------|-
Db|-5------------0-----------5-----------2-----------5-----------|-

Stave 9:

Db|-------------------------------------------------|---------------------------------------
Ab|-------0-----------5-----------0-----------5-----|-------0-----------5-----------0-------
F |-----0---0-------5---5-------2---2-------5---5---|-----0---0-------5---5-------2---2-----
Db|---2-------2---0-------0---0-------0---0-------0-|---2-------2---0-------0---0-------0---
Ab|-------------------------------------------------|---------------------------------------
Db|-0-----------5-----------2-----------5-----------|-0-----------5-----------2-------------

Stave 10:

Db|-x-------------------------------------------------0-|-|-
Ab|-x-------0----------0-----------5-----------0------0-|-|-
F |-5-5---5---5------0---0-------5---5-------2---2----5-|-|-
Db|-0---0----------2-------2---0-------0---0-------0--0-|-|-
Ab|-x-------------------------------------------------x-|-|-
Db|-5------------0-----------5-----------2------------5-|-|-

http://www.guitartabcreator.com
Guitar Tab Creator is intended to store guitar tab created through the tool. It currently does not support in-line text editing. Any text you place in here will be lost. If you need to comment on your tab, please use the "Tab Notes" section located below.