Sound will begin in 5 seconds

ab 1 s 1

Chords
01234567891011121314151617181920212223
E
B
G
D
A
E
B
0 1 2 3 4 5 6 7 8 9 10 11 12 13 14 15 16 17 18 19 20 21 22 23
Song Science #1: How Pros Use 6 Chords to Write Hit Songs
(/) Slide Up  (\) Slide Down  (h) Hammer On  (p) Pull Off  (b) Bend (r) Release (v) Vibrato

Stave 1:

E|-----9-----9-----9-----9-----9-----9-----9-----9-----9-----9-----9-----9-----9-----9-----9-----9--
B|--7-----7-----7-----7-----6-----6-----6-----6-----0-----0-----0-----0-----0-----0-----0-----0-----
G|--------------------------------------------------------------------------------------------------
D|--------------------------------------------------------------------------------------------------
A|--------------------------------------------------------------------------------------------------
E|--------------------------------------------------------------------------------------------------

Stave 2:

E|--------------------------------------------------------------------------------------------------
B|-----2-----2-----2-----2-----2-----2-----2-----2-----4-----4-----4-----4-----6-----6-----6-----6--
G|--3-----3-----3-----3-----3-----3-----3-----3-----6-----6-----6-----6-----8-----8-----8-----8-----
D|--------------------------------------------------------------------------------------------------
A|--------------------------------------------------------------------------------------------------
E|--------------------------------------------------------------------------------------------------

Stave 3:

E|--2--6--6--7--5--3--2--4--7--5--7--
B|--2--6--7--7--5--3--2--4--7--7--9--
G|--3--7--8--8--6--4--3--5--8--7--9--
D|--4--8--8--9--7--5--4--6--9--7--9--
A|--4--8--6--9--7--5--4--6--9--5--7--
E|--2--6--6--7--5--3--2--4--7--5--7--

http://www.guitartabcreator.com
Guitar Tab Creator is intended to store guitar tab created through the tool. It currently does not support in-line text editing. Any text you place in here will be lost. If you need to comment on your tab, please use the "Tab Notes" section located below.