Sound will begin in 5 seconds

Slide it in

Chords
01234567891011121314151617181920212223
E
B
G
D
A
E
B
0 1 2 3 4 5 6 7 8 9 10 11 12 13 14 15 16 17 18 19 20 21 22 23
(/) Slide Up  (\) Slide Down  (h) Hammer On  (p) Pull Off  (b) Bend (r) Release (v) Vibrato

Stave 1:

D |--17-----15---------------------------0--5--3--0---------------------------------------------------
A |-------------15-----17v-----\0--------------------0--3--5v-----\0----------3\2--2--0-----2-3--3-0--
Gb|-----------------12/17---------------------------------------------------2/3----------0--2/3--3\0--
D |---------------------------------------------------------------------------------------------------
A |---------------------------------------------------------------------------------------------------
D |---------------------------------------------------------------------------------------------------

Stave 2:

D |--------0------------------------12--15--17--15---------------------------12--10------------------
A |--0--------3/5v--/23r0--------10/12--------------15--15/17v--\0--------10/12------10--10/r10/12v--
Gb|-----0--------------------------------------------------------------------------------------------
D |--------------------------------------------------------------------------------------------------
A |--------------------------------------------------------------------------------------------------
D |-------------0------------------------------------------------------------------------------------

Stave 3:

D |---------------------------3--0----0-----5---------3--------2--------1-----0-----3--3/5--3-------
A |--9\6/7v--\0--------5\3r0--------3/5--------5--\3-----3--2-----2--1-----1--0--0-------------3/7--
Gb|--------------------------------------------5-\-3--------2--------1--------0------------------7--
D |--------------------------------------------5\--3--------2--------1---------------------------7--
A |----------------------------------------------------------------------------------------------7--
D |--------------------------------------0----------------------------------------------------------

Stave 4:

D |-----------------------------3p0----------5-----|--5\3p0--3--0--3-5---------------|-----3/12------|--
A |-----------------2-----2--3-------3\0--0--5-----|---------------3/5---------------|---------------|--
Gb|-----7--3--------2-----2-/3---------------5--5--|--------------------2/3-2-3-2-3--|-----------12--|--
D |--7--7--3--------2-----2/-3---------------5--5--|----------------------3\2/3\2/3--|---------------|--
A |--7--7--3-p0------------------------------5--5--|----------------------3-2-3-2-3--|---------------|--
D |--7-----3p-0--0-----0-----0---------------5-----|------------------------------0--|--0----0-------|--

Stave 5:

D |-----3----/5--5--------5--5-/7--
A |-----3---/-5--------------5/-7--
Gb|-----3--/--5-----5--5-----------
D |-----3-/---5--------------------
A |--0--3/----5--------------------
D |--0-----------------------------

http://www.guitartabcreator.com
Guitar Tab Creator is intended to store guitar tab created through the tool. It currently does not support in-line text editing. Any text you place in here will be lost. If you need to comment on your tab, please use the "Tab Notes" section located below.