001

Chords

01234567891011121314151617181920212223
E
B
G
D
A
E
B
0 1 2 3 4 5 6 7 8 9 10 11 12 13 14 15 16 17 18 19 20 21 22 23
(/) Slide Up  (\) Slide Down  (h) Hammer On  (p) Pull Off  (b) Bend (r) Release (v) Vibrato

Stave 1:

E|----------------------------------------------------------------------------------------------------------------------
B|-----------------------------------------------------------------------------------5-------------------------5-----5--
G|--------9--11--12-----11p9------9--11-----9----------------------------------------6----------7--7-----------6-----6--
D|--9/11----------------------11------------------11p9\7--9b10--7--------7--9--7-----7----------7--9--7--------7-----7--
A|--------------------------------------------------------------------9--------------------7/9--------------------------
E|-------------------------------------------------------------------------------------------------------5--------------

Stave 2:

E|----------------------------------------------------------------------------------------------------------------------
B|-----------------------------------------------9----------------------------------------------------5-----5--5--5--5--
G|--------9--11--12-----11--9--12--11--9---------9--9h11p9--9------9-------------------7--7--7--7-----6-----6--6--6--6--
D|--9\11----------------------------------11----------------11--------11--9\7----------7--9--7--7-----7-----7--7--7--7--
A|-----------------------------------------------------------------------------7/9--------------9--0--------------------
E|----------------------------------------------------------------------------------------------------------------------

Stave 3:

E|-------------------------------------------------------------------------------------------------------------------------------
B|----------------9------------9---------9---------------------------------------------------------------------------------------
G|----------------9---------9--9--9---9--9-----9-----9------9--9---9-7--7----------7-----7--7--7--7----------7-----7--7-9---9-7--
D|-------7--9/11--------11--9-----11--9--------9h11-----11--9--11--9-7--7h9b10-----7-----7--9--7--7----------7-----7--9/11--9\7--
A|--7/9--7----------------------------------------------------------------------------9-----------9-----7h9-----9----------------
E|-------------------------------------------------------------------------------------------------------------------------------

Stave 4:

E|----------
B|-------5--
G|--7----6--
D|--7h9--7--
A|----------
E|----------

							http://www.guitartabcreator.com
Instruments
{"strings":[[[".",".",".",".",".",".","_",".",".",".",".",".",".","_",".","_",".",".",".",".",".",".",".",".",".","_",".",".",".",".","_",".","_",".",".",".",".",".",".",".","_",".","_","."],[".",".",".",".",".",".","_",".",".",".",".",".",".","_",".","_",".",".",".",".",".",".",".",".",".","_",".",".",".",".","_",5,"_",".",".",".",".",".",".",".","_",5,"_",5],[".",".",".",9,11,12,"_",11,"p",9,".",9,11,"_",9,"_",".",".",".",".",".",".",".",".",".","_",".",".",".",".","_",6,"_",".",".",".",7,7,".",".","_",6,"_",6],[9,"/",11,".",".",".","_",".",".",".",11,".",".","_",".","_",11,"p",9,"\\",7,9,"b",10,7,"_",".",7,9,7,"_",7,"_",".",".",".",7,9,7,".","_",7,"_",7],[".",".",".",".",".",".","_",".",".",".",".",".",".","_",".","_",".",".",".",".",".",".",".",".",".","_",9,".",".",".","_",".","_",7,"/",9,".",".",".",".","_",".","_","."],[".",".",".",".",".",".","_",".",".",".",".",".",".","_",".","_",".",".",".",".",".",".",".",".",".","_",".",".",".",".","_",".","_",".",".",".",".",".",".",5,"_",".","_","."]],[[".",".",".",".",".",".","_",".",".",".",".",".",".","_",".",".",".",".",".",".",".","_",".",".",".",".",".",".",".",".","_",".",".",".",".",".",".","_",".",".",".","."],[".",".",".",".",".",".","_",".",".",".",".",".",".","_",9,".",".",".",".",".",".","_",".",".",".",".",".",".",".",".","_",".",".",".",".",".",5,"_",5,5,5,5],[".",".",".",9,11,12,"_",11,9,12,11,9,".","_",9,9,"h",11,"p",9,9,"_",9,".",".",".",".",".",".",".","_",7,7,7,7,".",6,"_",6,6,6,6],[9,"\\",11,".",".",".","_",".",".",".",".",".",11,"_",".",".",".",".",".",".",11,"_",".",11,9,"\\",7,".",".",".","_",7,9,7,7,".",7,"_",7,7,7,7],[".",".",".",".",".",".","_",".",".",".",".",".",".","_",".",".",".",".",".",".",".","_",".",".",".",".",".",7,"/",9,"_",".",".",".",9,0,".","_",".",".",".","."],[".",".",".",".",".",".","_",".",".",".",".",".",".","_",".",".",".",".",".",".",".","_",".",".",".",".",".",".",".",".","_",".",".",".",".",".",".","_",".",".",".","."]],[[".",".",".",".",".",".",".",".","_",".",".",".",".",".",".","_",".",".",".",".",".",".",".",".",".",".",".",".",".",".",".","_",".",".",".",".",".",".","_",".",".",".",".",".",".",".",".",".",".",".","."],[".",".",".",".",".",".",".",9,"_",".",".",9,".",".",9,"_",".",".",".",".",".",".",".",".",".",".",".",".",".",".",".","_",".",".",".",".",".",".","_",".",".",".",".",".",".",".",".",".",".",".","."],[".",".",".",".",".",".",".",9,"_",".",9,9,9,9,9,"_",9,".",".",9,".",9,9,9,"\\",7,7,".",".",".",".","_",7,".",7,7,7,7,"_",".",".",".",7,".",7,7,".",9,9,".",7],[".",".",".",7,9,"/",11,".","_",11,9,".",11,9,".","_",9,"h",11,".",11,9,11,9,"\\",7,7,"h",9,"b",10,"_",7,".",7,9,7,7,"_",".",".",".",7,".",7,9,"/",11,9,"\\",7],[7,"/",9,7,".",".",".",".","_",".",".",".",".",".",".","_",".",".",".",".",".",".",".",".",".",".",".",".",".",".",".","_",".",9,".",".",".",9,"_",7,"h",9,".",9,".",".",".",".",".",".","."],[".",".",".",".",".",".",".",".","_",".",".",".",".",".",".","_",".",".",".",".",".",".",".",".",".",".",".",".",".",".",".","_",".",".",".",".",".",".","_",".",".",".",".",".",".",".",".",".",".",".","."]],[[".",".",".","."],[".",".",".",5],[7,".",".",6],[7,"h",9,7],[".",".",".","."],[".",".",".","."]]],"numberofstrings":6,"notes":["E","B","G","D","A","E","B"],"capo":0,"stringnotes":["E4","B3","G3","D3","A2","E2"],"comments":["Stave 1:","Stave 2:","Stave 3:","Stave 4:"],"timing":[[null,null,null,null,null,null,null,null,null,null,null,null,null,null,null,null,null,null,null,null,null,null,null,null,null,null,null,null,null,null,null,null,null,null,null,null,null,null,null,null,null,null,null,null,null],["W",null,"W","W","W","W","W","W","W","W","W","W","W",null,"W","W",null,"W",null,"W","W",null,"W","W","W",null,"W","W",null,"W","W","W","W","W","W","W",null,"W","W","W","W","W"],["W",null,"W","W","W",null,"W","W",null,"W","W","W","W","W","W",null,"W",null,"W","W","W","W","W","W",null,"W","W","W","W",null,"W",null,"W","W","W","W","W","W","W","W",null,"W","W","W","W","W",null,"W","W","W","W"],["W",null,"W","W"]],"timingvisible":false,"tabcounter":29,"stave":1,"totalstaves":4,"instrument":"6guitar","selectedtuning":"6_standard","version":"13"}

Member for

1 week 5 days
Submitted by julesalexandre on Thu, 2020-05-21 15:52